Guitaretab - guitar tabs
Song name
# A B C D E F G H I J K L M N O P Q R S T U V W X Y Z
Home / A / Aria / Demons tab

Aria - Demons tab

Demons (1986 - whith whom are you?)

E-----------------------------------|-------------------------------------|
H-----------------------------------|-------------------------------------|
G--9--999--9-9-9-9-9-9--------------|--8--888--8-8-8-8-8-8-8-8------------|
D--9--999--9-9-9-9-9-9--------------|--8--888--8-8-8-8-8-8-8-8------------|
A--7--777--7-7-7-7-7-7--10--9--7----|--6--666--6-6-6-6-6-6-6-6------------|
E-----------------------------------|----------------------------7--------|

E-----------------------------------|-------------------------------------|
H-----------------------------------|-------------------------------------|
G--9--999--9-9-9-9------------------|--8--888--8-8-8----------------------|
D--9--999--9-9-9-9------------------|--8--888--8-8-8--9-10-9h10p9-7-------|
A--7--777--7-7-7-7--7--9--10--9--7--|--6--666--6-6-6----------------10-9--|
E-----------------------------------|-------------------------------------|
[ Tab from: http://www.guitaretab.com/a/aria/130209.html ]
E-------------------------------------------------------------------------|
H-------------------------------------------------------------------------|
G-------------------------------------------------------------------------|
D--9--xxxx--9----7--xxxx--7----5--xxxx--5-----7----7----7----7------------|
A--9--xxxx--9----7--xxxx--7----5--xxxx--5-----7----7----7----7------------|
E--7--xxxx--7----5--xxxx--5----3--xxxx--3---5-5--5-5--5-5--5-5------------|

E--------------------------------------------------||
H--------------------------------------------------||
G------------------------------------------------*-||
D--9--xxxx--9----7--xxxx--7----5--xxxx--5---7----*-||
A--9--xxxx--9----7--xxxx--7----5--xxxx--5---7------||
E--7--xxxx--7----5--xxxx--5----3--xxxx--3---5------||

E---------------------------------------------------------------------|
H---------------------------------------------------------------------|
G--7--xxx--7-7-7---7--xxx--7-7-7---7--xxx--7-7-7----------------------|
D--7--xxx--7-7-7---7--xxx--7-7-7---7--xxx--7-7-7---7--7h8p7--5--------|
A--5--xxx--5-5-5---5--xxx--5-5-5---5--xxx--5-5-5----------------8--7--|
E---------------------------------------------------------------------|
Related for Demons tab