Aria - Oskolok Lda tab

  Am                            F
e||----------0------------------|-----------------------|
H||----0-1-3------3----1----1---|--0---1-0--------------|
G||--2----------2----2----2-----|----------2------------|
D||-----------------------------|-----------------------|
A||-----------------------------|-----------------------|
E||-----------------------------|-----------------------|

   Dsus2/A                       Am
|----------0------------------|-------------------|
|----0-1-3------3----1--------|-------------------|
|--2----------2----2----2-4r--|--2----------------|
|-----------------------------|-------------------|
|-----------------------------|-------------------|
|-----------------------------|-------------------|

 Am                  C
Ночь унесла тяжелые тучи,
     F          G          Am
Но дни горьким сумраком полны.
Мы расстаемся - так будет лучше,
Вдвоем нам не выбраться из тьмы...

	F      G         Am  
	  Я любил и ненавидел,
	  Но теперь душа пуста.
	F        G           C  C+7/H  Am
	  Все исчезло, не оставив и следа,
                    F         G           Dsus2  Asus4
	  И не знает боли в груди осколок льда... 

Я помню все, о чем мы мечтали,
Но жизнь не для тех, кто любит сны.
Мы слишком долго выход искали,
Но шли бесконечно вдоль стены...

	Припев

Пусть каждый сам находит дорогу -
Мой путь будет в сотню раз длинней
Но не виню ни черта, ни Бога
За все платить придется мне!

	  Я любил и ненавидел,
	  Но теперь душа пуста.
	  Все исчезло, не оставив и следа,
                    F         G            D
	  И не знает боли в груди осколок льда... 
                    F         G            Am
	  И не знает боли в груди осколок льда...
Tap to rate this tab
 
# A B C D E F G H I J K L M N O P Q R S T U V W X Y Z