Song name
# A B C D E F G H I J K L M N O P Q R S T U V W X Y Z

Ariana Grande - The Way tab

"The Way" by Ariana Grande ft. Mac Miller
(Gabe Bondoc's Chord Progression)

Standard Tuning. *Original Pitch = Tuning: Half-Step Down


Intro/Rap:
-7----5-5---9-------|
---7----------8-9-9-|
--------------------| (2x)
--------------------|
--------------------|
--------------------|

Verse/Chorus/Bridge:
-(x)--5--0--4----0--0--0-|
-(5)--7--7--5----9--9--9-|
-(6)--7--7--6----10-10-9-| (4x)
-(5)--7--6--6----9--0--7-|
-(x)--0--7--0----0--8--9-|
-(6)--7--0--5----9--0--0-|

Pre-Chorus:
--5------0-------|
--7------7-------|
--7------7-------|
--7------6-------|
--0------7-------|
--7------0-------|
Tap to rate this tab
# A B C D E F G H I J K L M N O P Q R S T U V W X Y Z