Song name
# A B C D E F G H I J K L M N O P Q R S T U V W X Y Z

Ariana Grande - Baby I tab

Its hard to tab out the strumming so i will just tab out the chords within each 
bar since i do not know the names of them.
(Each box represents a bar)


Intro:

e|-4-4-4-4---4-4-4-4-|
B|-4-4-4-4---4-4-4-4-|
G|-6-6-6-6---6-6-6-6-|
D|-4-4-4-4---4-4-4-4-|
A|-6-6-6-6---6-6-6-6-|
E|-4-4-4-4---4-4-4-4-| X2



Verse 1:

Baby I got love for thee
So deep inside of me I don't know where to start (Yeah, yeah)
I love you more than anything
But the words can't even touch what's in my heart (No, oh)
e|----6----|----6----|----4----|----4----|
B|----7----|----7----|----6----|----6----|
G|----6----|----6----|----6----|----6----|
D|----7----|----7----|----6----|----6----|
A|----6----|----6----|----4----|----4----|
E|---------|---------|---------|---------| x2



Prechorus:
When I try to explain it I be sounding insane
Words don't ever come out right
I get all tongue tied (and twisted)
I can't explain what I'm (feeling)  
e|----8----|----8----|----1----|----1----|----2----|----2----|
B|----9----|----9----|----2----|----2----|----4----|----4----|
G|----8----|----8----|----3----|----3----|----4----|----4----|
D|----10---|----10---|----3----|----3----|----4----|----4----|
A|----8----|----8----|----1----|----1----|----2----|----2----|
E|---------|---------|---------|---------|---------|---------|

And I say baby, baby, baby
e|-4-4-4-4---4-4-4-4-|-4-4-4-4-|
B|-4-4-4-4---4-4-4-4-|-4-4-4-4-|
G|-6-6-6-6---6-6-6-6-|-6-6-6-6-|
D|-4-4-4-4---4-4-4-4-|-4-4-4-4-|
A|-6-6-6-6---6-6-6-6-|-6-6-6-6-|
E|-4-4-4-4---4-4-4-4-|-4-4-4-4-|



Chorus:

(Baby I) ooh baby, oh baby, my baby
(Baby I) ooh baby, baby I
e|--6--8---|----1----|
B|--7--9---|----2----|
G|--6--8---|----3----|
D|--8--10--|----3----|
A|--6--8---|----1----|
E|---------|---------| X2


All I'm tryna say is you're my everything baby
e|--6--8---|--6--1--|
B|--7--9---|--7--2--|
G|--6--8---|--6--3--|
D|--8--10--|--6--3--|
A|--6--8---|--6--1--|
E|---------|--------|


But every time I try to say it
Words, they only complicate it
e|-3-1-1-6-|
B|-4-1-2-7-|
G|-5-2-3-8-|
D|-5-3-3-8-|
A|-3-3-1-6-|
E|---1-----|


Baby, baby
e|-4-4-4-4---4-4-4-4-|
B|-4-4-4-4---4-4-4-4-|
G|-6-6-6-6---6-6-6-6-|
D|-4-4-4-4---4-4-4-4-|
A|-6-6-6-6---6-6-6-6-|
E|-4-4-4-4---4-4-4-4-|x2



Verse 2:

Baby I'm so down for you
No matter what you do, (real talk), I'll be around (Yeah, yeah, oh baby)
See baby I been feelin' you
Before I even knew what feelings were about (Oh baby)
e|----6----|----6----|----4----|----4----|
B|----7----|----7----|----6----|----6----|
G|----6----|----6----|----6----|----6----|
D|----7----|----7----|----6----|----6----|
A|----6----|----6----|----4----|----4----|
E|---------|---------|---------|---------|x2



Prechorus:

When I try to explain it I be sounding all crazy
Words don't ever come out right
I get all tongue tied (and twisted)
I can't explain what I'm (feeling)  
e|----8----|----8----|----1----|----1----|----2----|----2----|
B|----9----|----9----|----2----|----2----|----4----|----4----|
G|----8----|----8----|----3----|----3----|----4----|----4----|
D|----10---|----10---|----3----|----3----|----4----|----4----|
A|----8----|----8----|----1----|----1----|----2----|----2----|
E|---------|---------|---------|---------|---------|---------|


And I say baby baby, baby
e|-4-4-4-4---4-4-4-4-|-4-4-4-4-|
B|-4-4-4-4---4-4-4-4-|-4-4-4-4-|
G|-6-6-6-6---6-6-6-6-|-6-6-6-6-|
D|-4-4-4-4---4-4-4-4-|-4-4-4-4-|
A|-6-6-6-6---6-6-6-6-|-6-6-6-6-|
E|-4-4-4-4---4-4-4-4-|-4-4-4-4-|


Chorus:

(Baby I) ooh baby, oh baby, my baby
(Baby I) ooh baby, baby I
e|--6--8---|----1----|
B|--7--9---|----2----|
G|--6--8---|----3----|
D|--8--10--|----3----|
A|--6--8---|----1----|
E|---------|---------|x2


All I'm tryna say is you're my everything baby
e|--6--8---|--6--1--|
B|--7--9---|--7--2--|
G|--6--8---|--6--3--|
D|--8--10--|--6--3--|
A|--6--8---|--6--1--|
E|---------|--------|


But every time I try to say it
Words, they only complicate it
e|-3-1-1-6-|
B|-4-1-2-7-|
G|-5-2-3-8-|
D|-5-3-3-8-|
A|-3-3-1-6-|
E|---1-----|


Baby, baby
e|-4-4-4-4---4-4-4-4-|
B|-4-4-4-4---4-4-4-4-|
G|-6-6-6-6---6-6-6-6-|
D|-4-4-4-4---4-4-4-4-|
A|-6-6-6-6---6-6-6-6-|
E|-4-4-4-4---4-4-4-4-|x2




Bridge:

Straight up, you got me,
All in, how could I not be,
e|-----------------|-----------------|
B|-----------------|-----------------|
G|-----------------|-----------------|
D|-8-8-8-8-8-8-8-8-|-6-6-6-6-6-6-6-6-|
A|-8-8-8-8-8-8-8-8-|-6-6-6-6-6-6-6-6-|
E|-6-6-6-6-5-5-5-5-|-4-4-4-4-3-3-3-3-|
   * * * * * * * *   * * * * * * * *

I sure hope you know
e|-----------------|-----------------|
B|-----------------|-----------------|
G|-----------------|-----------------|
D|-4-4-4-4-4-4-4-4-|-6-6-6-6-6-6-6-6-|
A|-4-4-4-4-4-4-4-4-|-6-6-6-6-6-6-6-6-|
E|-2-2-2-2-2-2-2-2-|-4-4-4-4-4-4-4-4-|
   * * * * * * * *   * * * * * * * *

If it's even possible, I love you more
e|-----------------|-----------------|
B|-----------------|-----------------|
G|-----------------|-----------------|
D|-8-8-8-8-8-8-8-8-|-6-6-6-6-6-6-6-6-|
A|-8-8-8-8-8-8-8-8-|-6-6-6-6-6-6-6-6-|
E|-6-6-6-6-5-5-5-5-|-4-4-4-4-3-3-3-3-|
   * * * * * * * *   * * * * * * * *

Than the word love can say it
It's better not explaining
e|-----------------|-----------------|
B|-----------------|-----------------|
G|-----------------|-----------------|
D|-4-4-4-4-4-4-4-4-|-4-4-4-4-4-4-4-4-|
A|-4-4-4-4-4-4-4-4-|-4-4-4-4-4-4-4-4-|
E|-2-2-2-2-2-2-2-2-|-2-2-2-2-2-2-2-2-|
   * * * * * * * *   * 

That's why I keep saying… Baby I
e|-----------------|
B|-----------------|
G|-----------------|
D|-6-6-6-6-6-6-6-6-|
A|-6-6-6-6-6-6-6-6-|
E|-4-4-4-4-4-4-4-4-|



Chorus:

(Baby I) ooh baby, oh baby, my baby
(Baby I) ooh baby, baby I
e|--6--8---|----1----|
B|--7--9---|----2----|
G|--6--8---|----3----|
D|--8--10--|----3----|
A|--6--8---|----1----|
E|---------|---------|x2


All I'm tryna say is you're my everything baby
e|--6--8---|--6--1--|
B|--7--9---|--7--2--|
G|--6--8---|--6--3--|
D|--8--10--|--6--3--|
A|--6--8---|--6--1--|
E|---------|--------|


But every time I try to say it
Words, they only complicate it
e|-3-1-1-6-|
B|-4-1-2-7-|
G|-5-2-3-8-|
D|-5-3-3-8-|
A|-3-3-1-6-|
E|---1-----|

Baby, baby
Baby
Baby, baby
e|-4-4-4-4---5-5-5-5-|
B|-4-4-4-4---5-5-5-5-|
G|-6-6-6-6---7-7-7-7-|
D|-4-4-4-4---5-5-5-5-|
A|-6-6-6-6---7-7-7-7-|
E|-4-4-4-4---5-5-5-5-|


(key change)


(Baby I) ooh baby, oh baby, my baby
(Baby I) ooh baby, baby I
e|--7--9---|----2----|
B|--8--10--|----3----|
G|--7--9---|----4----|
D|--9--11--|----4----|
A|--7--9---|----2----|
E|---------|---------|x2



All I'm tryna say is you're my everything baby
e|--7--9---|--7--2--|
B|--8--10--|--8--3--|
G|--7--9---|--7--4--|
D|--9--11--|--7--4--|
A|--7--9---|--7--2--|
E|---------|--------|

But every time I try to say it
Words, they only complicate it
e|-4-2-2-7-|
B|-5-2-3-9-|
G|-6-3-4-9-|
D|-6-4-4-9-|
A|-4-4-2-7-|
E|---2-----|x3

Baby, baby
Baby, baby
e|-5-5-5-5---5-5-5-5-|
B|-5-5-5-5---5-5-5-5-|
G|-7-7-7-7---7-7-7-7-|
D|-5-5-5-5---5-5-5-5-|
A|-7-7-7-7---7-7-7-7-|
E|-5-5-5-5---5-5-5-5-|x2
Tap to rate this tab
# A B C D E F G H I J K L M N O P Q R S T U V W X Y Z