Song name
# A B C D E F G H I J K L M N O P Q R S T U V W X Y Z

Ariana Grande - Right There Acoustic tab

-------------------------------------------------------------------------------
                                               Ariana Grande - Right There (Acoustic)
-------------------------------------------------------------------------------
Tabbed by: Karla Dulay
E-mail: karladulay@gmail.com / heyarigrande.tumblr.com

Tuning: Standard

Tabbed According to this Performance:
https://www.youtube.com/watch?v=zUmlH4mLmk4

Intro
e|---3--3--------3-----x-----5----------|
B|---3----3------3-----6-----5----------|
G|---5------5----5-----x-----7----------|
D|---5--------5--5-----5-----7----------|
A|---3-----------3-----6-----5----------|
E|---3-----------3-----x-----5----------|

e|---7------x-----x------x------3-----x-----5------7---------|
B|---7h8----x-----8------3------3-----x-----5------7---------|
G|---7------x-----7------4------5-----x-----5------7---------|   2x
D|---7h9----x-----x------5------5-----x-----5------7---------|
A|---7------x-----5------x------3-----x-----7------7h9-------|
E|----------x-----x------x------3-----x-----5------7---------|


Verse
e|---7------x-----x------x------3-----x-----5------7---------|
B|---7h8----x-----8------3------3-----x-----5------7---------|
G|---7------x-----7------4------5-----x-----5------7---------|   3x
D|---7h9----x-----x------5------5-----x-----5------7---------|
A|---7------x-----5------x------3-----x-----7------7h9-------|
E|----------x-----x------x------3-----x-----5------7---------|

e|---7------x-----x------x------3-----x-------7--------|
B|---7h8----x-----8------3------3-----x-------7--------|
G|---7------x-----7------4------5-----x-------7--------|   
D|---7h9----x-----x------5------5-----x-------7--------|
A|---7------x-----5------x------3-----x-------9--------|
E|----------x-----x------x------3-----x-------7--------|

Prechorus
e|---3--3--------3-----x-----5--------|
B|---3----3------3-----6-----5--------|
G|---5------5----5-----x-----7--------|
D|---5--------5--5-----5-----7--------|
A|---3-----------3-----6-----5--------|
E|---3-----------3-----x-----5--------|

Chorus
e|--7-----7------x-----x------3-----5-----7---------|
B|--7h8---8------8-----3------3-----5-----7---------|
G|--7-----7------7-----4------3-----5-----7---------|   2x
D|--7h9---9------x-----5------5-----5-----7---------| 
A|--7-----7------5-----0------5-----7-----9---------|
E|---------------------x------3-----5-----7---------|

Then it goes into this 
but you can just play it however you want since its played differently every time. 

Here are the chord shapes
e|--3---|---3---|---3---|---3---|-------|----0----|
B|--3---|---3---|---3---|---3---|---3---|----0----|
G|--0---|---2---|---0---|---0---|---0---|----2----|
D|--2---|---0---|---0---|---0---|---2---|----1----|
A|--2---|-------|---x---|---3---|---0---|----2----|
E|--0---|-------|---3---|-------|-------|----0----|
   Em7    Dsus4     G     Csus2   A7sus4   Em7sus4
 

And heres the tab for the way its played in the video I linked above
or you can just follow the chord progression in parentheses

    (Em7)         (Dsus4)     (G)    (Csus2)      (A7sus4)(Em7sus4)
e|--------3-------------------------------------------------------------|
B|-----------3------3----3------------------3-------3-------------------|
G|--------------0---0h2----2--------------0---0-----0-------2-----------|
D|------------------0---------------------------0---2-------1-----------|
A|-----2-----------------------------2h3------------0-------2-----------|
E|--0--------------------------3----------------------------0-----------|

   (Em7)         (Dsus4)     (G)   (Csus2)    (Em7sus4)
e|-------3---------------------------------------0-----------|
B|----------3------3---3---------3--------3------0-----------|
G|-------------0---0h2----2---------------0------2-----------|
D|--2--------------0----------------------0------1-----------|
A|--2-------------------------------2h3---3------2-----------|
E|--0-------------------------3------------------0-----------|

Then repeat verse, prechorus, and chorus

Outro
e|---7------x-----x------x------3-----x-----5------7---------|
B|---7h8----x-----8------3------3-----x-----5------7---------|
G|---7------x-----7------4------5-----x-----5------7---------|   
D|---7h9----x-----x------5------5-----x-----5------7---------|
A|---7------x-----5------x------3-----x-----7------7h9-------|
E|----------x-----x------x------3-----x-----5------7---------|

And end on this
e|---7-----|
B|---7h8---|
G|---7-----|   
D|---7h9---|
A|---7-----|
E|---------|



************************************

| /   slide up
| \   slide down
| h   hammer-on
| p   pull-off
| ~   vibrato
| +   harmonic
| x   Mute note
| b   Bend
| pb  Pre-bend
| br  Bend release
| pbr Pre-bend release
| brb Bend release bend

************************************
Tap to rate this tab
# A B C D E F G H I J K L M N O P Q R S T U V W X Y Z