Song name
# A B C D E F G H I J K L M N O P Q R S T U V W X Y Z

Ariel Pinks Haunted Graffiti - The List My Favorite Song tab

The List (My Favorite Song)
Ariel Pink's Haunted Graffiti
FF>>

Tabbed by Alek Skiba (alexanderskiba@gmail.com)

Stumbled upon this melody one evening... worked on it,
and besides the solos I've got basically everything. A really simple song.

Standard tuning. (EADGBE)

Intro/Verse:
Have your thumb rest lightly on the low E to mute it, and don't play the high
E. You're basically sliding throughout the entire song, so keep your fingers 
on the "chords".

E||------------------------------------------------------------------||
B||-10----------/13----------/8---------/5--------/12----------------||
G||-10----------/13----------/8---------/5--------/12----------------||
D||-10--(x7)----/13--(x7)----/8--(x7)---/5--(x7)--/12--(x7)----------||
A||-10----------/13----------/8---------/5--------/12----------------||
E||-x-----------/x-----------/x---------/x--------/x-----------------||

Bridge:
@ 1:24 AND 2:40
When he starts singing "And I would cry and cry"; brief segue then go back
into Intro/Verse again.

E||------------------------||
B||-8----------/12---------||
G||-8----------/12---------||
D||-8--(x7)----/12--(x7)---||
A||-8----------/12---------||
E||-x-----------/x---------||

Solos:
Haven't gotten around to this one yet. Honestly if you flail around on the B
and high E, it sounds pretty fitting anyway.

Chorus:
@ 3:07 "It was the wrong song as long as this went on"

E||-----------------------------------||
B||-10----------/13---------/10-------||
G||-10----------/13---------/10-------||
D||-10--(x2)----/13--(x2)---/10--(x4)-||
A||-10----------/13---------/10-------||
E||-x-----------/x----------x---------||

In total it goes
Intro/Verse
Bridge
Verse
Bridge
Solo #1
Chorus
Verse
Solo #2
Chorus

Just play along to get the rhythm going and you'll nail this one easy.

-Alek




Tap to rate this tab
# A B C D E F G H I J K L M N O P Q R S T U V W X Y Z