Song name
# A B C D E F G H I J K L M N O P Q R S T U V W X Y Z

Aris Ariwatan - Lamunan Terhenti tab

Aris ariwatan - lamunan terhenti

intro
Am Dm F G Am

(solo time starting)
|-------------------------------------------------------------------|
|-------------------------------------------------------------------|
|------5-\9--9-7-5-4h5p4-------------5-4~-5-4~----------\17-16~-----|
|---\7------------------3~--\3~--5-7-----------5-5\7----------------|
|-------------------------------------------------------------------|
|-------------------------------------------------------------------|


Entah mengapakah hatiku bergetaran
              Am             Dm
Bila bertemu lagi oh! kekasih lama
          G                     Am
Ku cuba selindungkan api keresahan
           F                    Dm
Namun perasaan ini berapi di dalam
             G                  E


(solo)
|--------------------------------------------------------------|
|--------------------------------------------------------------|
|---\17-16-17-16-17\21~----------------------------------------|
|--------------------------------------------------------------|
|--------------------------------------------------------------|
|--------------------------------------------------------------|

Ku kira engkau sudah melupakan
             Am               Dm
Kerna itulah engkau nampak tenang
           G                     Am
Lainlah aku walau ketika ini
       F                    Dm
Masih membara ingatanku terhadapmu
             G                    Am


1
Ku singkap kenangan dulu
         Dm            G
Sewaktu kasih berputik
       C              Am
Kugenggam erat tanganmu
       Dm             G
Kau tunduk sembunyikan wajah
         C                E
Namun dapat aku meneka hatimu
              F             Dm
Sehati denganku
              E
(solo)
|------------------------------------------------------------------|
|------------------------------------------------------------------|
|------------------------------------------------------------------|
|----7h9p7h9p7---9h10p9h109--10h12p10h12p10---14h15p14h15p14~~~~---|
|------------------------------------------------------------------|
|------------------------------------------------------------------|


2
Lalu kau mendongak berbalas renungan
           G                 Am
Dan dengan perlahan tangan kau lepaskan
            G                   Am
Kau pun berlalu dalam kepekatan malam
              Dm                    E
Tinggal aku seorang
               Am

(solo)
|---------------------------------8-7-5------------------------------------|
|---------------------------------------8-6-5-8-6-5---6-5------------------|
|---9h10p9\5h7p5\4h5p4------------------------------7------7-5-4-4h5p4-----|
|-----------------------7-7~---4---------------------------------------7-7~|
|--------------------------------------------------------------------------|
|--------------------------------------------------------------------------|

(solo)
|-----------------------------------------------------------------------------|
|------------------------------------------------5-6-8-6-5--------------------|
|------------------------------------4-5-7-4-5-7------------7-5-4-5-4h5p4-----|
|------------------------3-5-7-3-5-7--------------------------------------7---|
|----------3-5-7-5-3-5-7------------------------------------------------------|
|----3-5-7--------------------------------------------------------------------|


(solo)
|--------------------------------------------------------------------------|
|--------------------------------------------------------------------------|
|--------------------------------5p4------7p5------9p7-------10p9-7-9------|
|-----(palm mute atas nih je)3-5------5-7------7-9------9-10---------------|
|--------------------------------------------------------------------------|
|--------------------------------------------------------------------------|

------------------------------------------------------------|
------------------------------------------------------------|
\14-12~~-----7~~--10-9~~--14~~-13~~-14-16-16^-14-15^15^~----|
-----5h7----------------------------------------------------|
------------------------------------------------------------|
------------------------------------------------------------|

solo:

F G Am Bm C Bm G
F G Am A# F E


( ulang 1, 2 )

Terhenti lamunan bila ku dikejutkan
               Am                 Dm
Engkau dipimpin pergi oleh seseorang
             G                 Am
Dalam keterpaksaan kau melangkah kaki (pergi)
            F                       Dm
Namun sempat jua kau menoleh ku disini
              E                     Am

by: manda (^_^)
kalo ade salah tolong betulkan~
Tap to rate this tab
 
# A B C D E F G H I J K L M N O P Q R S T U V W X Y Z