Song name
# A B C D E F G H I J K L M N O P Q R S T U V W X Y Z

Arjit Singh - Chaau Mein Aanaa tab

Aashiqui 2
Chaau mein aaanaa
INTRO

------------0------------------------|
--------------------3--1--1p0--------|
---------2---------------------2p0---|2 times
------2------------2-----------------|
---0------------0--------------------|
-------------------------------------|

----------------------------------------------|
-----------------0----2---3---------0--1--3---|
----------0--2-------------------2------------|
--------3---------------------2---------------|
-----3----------------0---2-------------------|
--1--------------3----------------------------|

--------5------------------------3p2-----|
-----5------------1-3---------3--------3-|
---------------0-----------2-------------|
------------------------0----------------|
--0---------3----------------------------|
-----------------------------------------|
Tap to rate this tab
# A B C D E F G H I J K L M N O P Q R S T U V W X Y Z