Guitaretab - guitar tabs
Song name
# A B C D E F G H I J K L M N O P Q R S T U V W X Y Z

Ark - Worrying Kind tab

Artist: The Ark
Song: The Worrying Kind
Year: 2007


Legend:
~ = Long tone
b = Bend
(12) = What Tone you bend to
h = Hammer on
p = Pull off
PAUS = Eeh... Paus ^^

That's all you need to know =)


Intro: A

A
Moves, I like to make them

Grooves, I like to shake them
                              D                                 
Shake me from my troublesome mind

           E            F#m
Cause sometimes youíll find
          C#m        F#m
 that Iím out of my mind
         A              D       A
You see baby, Iím the worrying kind

A
Words, I like to break íem

Words Iíd like to shake íem
                                D
Shake them from my troublesome mind

         E           F#m
And you turn up your nose
        C#m        F#m
Itís a joke you suppose
     E                     A
But baby, Iím the worrying kind

           F#m
So if you see me somewhere
              F#m/F
With that glassy olí stare
        F#m/F              D#m7-5
And the panic and fear in my eyes
       E                        Fį
Donít call for first aid or the fire brigade
         F#m                 G
Or the local police cause they wont care
             D                    A/C#
Iím just a silly old boy with my head in the can
      Bm7                              A
Iím just a mortal with potential of a superman
          E
But what sense does it make
         Bm/F#
When i feel like a fake
           E/G#                  E                 
When iím saying to you all be good for goodness sake

A
Words, I like to break íem

Words Iíd like to shake íem
                                 D
Shake them from my troublesome mind
           E              F#m        C#m
And why? ĖHeaven knows, Itís a joke I suppose
    F#m            D         A
But baby, Iím the worrying kind


Solo here! 

          G#m
So if you see me somewhere
         G#m/G
With that glassy olí stare
           G#m
And the panic and fear in my eyes
        F#m                       Gį
Donít call for first aid or the fire brigade
        G#m                 A
Or the local police cause they wont care
          E                    B/D#
Iím just silly old boy with my head in the can
            C#m7                        B
Iím just a mortal with potential of a superman
           F#
But what sense does it make
        C#m/G#
When i feel like a fake
            F#/A#                F#
When iím saying to you all be good for goodness sake?

       B
Ooh! Words, I like to break íem
[ Tab from: http://www.guitaretab.com/a/ark/88264.html ]
Words Iíd like to shake íem
                                 E
Shake them from my troublesome mind
        F#         G#m
And why? -Heaven knows,
        D#m      G#m
Itís a joke I suppose
     F#            E        B
But baby, Iím the worrying kind

         F#           G#m                 
And You turn up your nose                 
         D#m       G#m                       
And you say itís a pose                     
     F#              E       B         
But Baby, Iím the worrying kind       

         F#           G#m                 
Yeah, sometimes Iím blind               
        D#m         G#m                           
Iím just out of my mind                      
   F#             E      B                 
Baby, Iím the worrying kind


Solo:
B
|--------------------------------|
|--------------------------------|
|--------------------------------|
|----------------------------16~-|
|--------------------------------|
|--------------------------------|



|--------------------------------|
|----------------------------12~-|
|--------13----------13----------|
|(16)16----------16--------------|
|------------13------------------|
|--------------------------------|



|--------------------------------|
|(12)12----------------------16~-|
|--------13----------13----------|
|----------------16--------------|
|------------13------------------|
|--------------------------------|



|----14--14--16------------------|
|(16)------------16p-15--12--12~-|
|--------------------------------|
|--------------------------------|
|--------------------------------|
|--------------------------------|


E
|--------------------------------|
|(12)----------------------------|
|--------------PAUS--------------|
|--------------------------------|
|--------------------------------|
|--------------------------------|


F#m                G#m
|--------------------------------|
|--------------------------------|
|----------------13--13----------|
|16--16------1316----------------|
|----------------------------1616|
|--------------------------------|


D#m                G#m
|--------------------------------|
|----------------------------14~-|
|----------------13--13----------|
|13--13------1616----------------|
|--------------------------------|
|--------------------------------|


F#                  E
|--------------------------------|
|(14)12--14--12--15p-14--12--12~-|
|--------------------------------|
|--------------------------------|
|--------------------------------|
|--------------------------------|


B
|--------------------------------|
|(12)----------------------------|
|--------------------------------|
|--------------------------------|
|--------------------------------|
|--------------------------------|


/TeH_bRokeN
Related for Worrying Kind tab