Song name
# A B C D E F G H I J K L M N O P Q R S T U V W X Y Z

Arkaea - War Within tab

-----------------------------------------------------------------------------
			     War Within - Arkaea
-----------------------------------------------------------------------------
Tabbed by:jtom#11
Email:jtom2@rmusd.net

This song is easy to play but hard to tab out!Especially with all the
upstrokes and downstrokes and alternate picking involved which is hard to tab out!!! Now 
of the tabbing may seem wrong
but just listen to the song and play along with it. pretty sure about 96% is correct.

. - palm mute
\ - alternate pick while sliding down
p - pull off
h - hammer-on
*ph - pinch harmonic
():00) - time played in song

 Tuning:Drop C
 [INTRO]
 (0:00)-(0:20)
D|----------------------------------------------------|-------------------|
A|----------------------------------------------------|-------------------|
F|----------------------------------------------------|-------------------|
C|----------------------------------------------------|-2-1-0-1-2/1-3/2---|
G|----------------------------------------------------|-2-1-0-1-2/1-3/2---|
C|-444444111111444444111111--555p2-555p2-666p3-666p3--|-2-1-0-1-2/1-3/2---|
   ........................  ... . ... . ... . ... .


 (0:20)-(0:30)
D|-----------------------------------|
A|-----------------------------------|
F|-----------------------------------|
C|-----------------------------------|
G|-----------------------------------|
C|-000-000--000-000---000000---------|
   ... ...  ... ...   ......


 (0.30)-(0:50) (2x)
D|----------------------------------------|
A|----------------------------------------|
F|----------------------------------------|
C|----------------------------------------|
G|---------0h8h11--------0h8h11-----------|
C|-000-000-------000-000--------000-000---|
   ... ...       ... ...        ... ...


 (3 1/2x)
D|------------------------------------------|-------------------------------|
A|------------------------------------------|-------------------------------|
F|------------------------------------------|-------------------------------|
C|------------------------------------------|-------------------------------|
G|---------0h7h10---------0h7h10------------|---------0h7h10-0h8h11-0h7h10--|
C|-000-000--------000-000--------000-000----|-000-000-----------------------|
   ... ...        ... ...        ... ...      ... ...


 (0:50)-(1:10)                                (alternate pick)
D|--------------------------------------------------------------------------|
A|--------------------------------------------------------------------------|
F|--------------------------------------------------------------------------|
C|-2------2------2------2------2------2-----------------------2-----2-------|
G|-4------4------4------4------0------0--------------9-11-12--0-----0-------|
C|---0000---16/----0000---16/----0000---0000--9-11-12-----------0000--------|
     ....          ....          ....   ....  . .  . . .  .     ....


D|------------------------|
A|------------------------|
F|------------------------|
C|------------------------|
G|------------------------|
C|-0000000-99999999-------|
   ....... ........


 (1:10)-(1:21)
D|-----------------------------------|
A|-----------------------------------|
F|-----------------------------------|
C|-----------------------------------|
G|-----------------------------------|
C|-000-000--000-000---000000---------|
   ... ...  ... ...   ......


 (1:21)-(1:40)
D|----------------------------------------|
A|----------------------------------------|
F|----------------------------------------|
C|----------------------------------------|
G|---------0h8h11--------0h8h11-----------|
C|-000-000-------000-000--------000-000---|
   ... ...       ... ...        ... ...


 (3 1/2x)
D|------------------------------------------|-------------------------------|
A|------------------------------------------|-------------------------------|
F|------------------------------------------|-------------------------------|
C|------------------------------------------|-------------------------------|
G|---------0h7h10---------0h7h10------------|---------0h7h10-0h8h11-0h7h10--|
C|-000-000--------000-000--------000-000----|-000-000-----------------------|
   ... ...        ... ...        ... ...      ... ...


 (1:40)-(2:00)                               (alternate pick)
D|--------------------------------------------------------------------------|
A|--------------------------------------------------------------------------|
F|--------------------------------------------------------------------------|
C|-2------2------2------2------2------2-----------------------2-----2-------|
G|-4------4------4------4------0------0--------------9-11-12--0-----0-------|
C|---0000---16/----0000---16/----0000---0000--9-11-12-----------0000--------|
     ....          ....          ....   ....  . .  . . .  .     ....
D|------------------------|
A|------------------------|
F|------------------------|
C|------------------------|
G|------------------------|
C|-0000000-99999999-------|
   ....... ........


 (2:00)-(2:20)
D|----------------------------------------------------|-------------------|
A|----------------------------------------------------|-------------------|
F|----------------------------------------------------|-------------------|
C|----------------------------------------------------|-2-1-0-1-2/1-3/2---|
G|----------------------------------------------------|-2-1-0-1-2/1-3/2---|
C|-444444111111444444111111--555p2-555p2-666p3-666p3--|-2-1-0-1-2/1-3/2---|
   ........................  ... . ... . ... . ... .


 (2:20)-(2:40)
D|------------------|
A|----------0-------|
F|------------------|
C|-6--2--5----------|
G|-6--2--5----------|
C|-6--2--5----------|


 (2:40)-(3:06) this piece is also played as bar chords for the heavier part.
D|------------------------------------------------------------|
A|------------------------------------------------------------|
F|------------------------------------------------------------|
C|------------------------------------------------------------|
G|------------------------------------------------------------|
C|-000-2-1-111-3-2-5-4---000-2-1-111-333332222255555-2*ph-----|
   ...     ...           ...     ... ...............


 (3:06)-(3:26)
D|------------------|
A|----------0-------|
F|------------------|
C|-6--2--5----------|
G|-6--2--5----------|
C|-6--2--5----------|


(3:26)-(4:08)
D|-----------------------------------|
A|-----------------------------------|
F|-----------------------------------|
C|-----------------------------------|
G|-----------------------------------|
C|-000-000--000-000---000000---------|
   ... ...  ... ...   ......
                                             (alternate pick)
D|--------------------------------------------------------------------------|
A|--------------------------------------------------------------------------|
F|--------------------------------------------------------------------------|
C|-2------2------2------2------2------2-----------------------2-----2-------|
G|-4------4------4------4------0------0--------------9-11-12--0-----0-------|
C|---0000---16/----0000---16/----0000---0000--9-11-12-----------0000--------|
     ....          ....          ....   ....  . .  . . .  .     ....
D|------------------------|
A|------------------------|
F|------------------------|
C|------------------------|
G|------------------------|
C|-0000000-99999999-------|
   ....... ........


D|---------------------------------------------------------------|
A|---------------------------------------------------------------|
F|---------------------------------------------------------------|
C|---------------------------------------------------------------|
G|---------0h8h11---------0h8h11---------------------------------|
C|-000-000--------000-000--------000--000--000--000--000--000----|
   ... ...        ... ...        ...  ...  ...  ...  ...  ...


thats the end of it....
Tap to rate this tab
# A B C D E F G H I J K L M N O P Q R S T U V W X Y Z