Song name
# A B C D E F G H I J K L M N O P Q R S T U V W X Y Z

Arkaea - Locust tab

-----------------------------------------------------------------------------
			     LOCUST - ARKAEA
-----------------------------------------------------------------------------
 Tabbed by:meshuggener
 Email:meshuggener667@hotmail.com

 Tuning:7TH STRING GUITAR,STANDARD TUNING

 here's the right way for you to play the first great song of a very nice album.enjoy!  
1#:IT MEANS  Palm Mute
most parts of the song are played really fast.listen to the original song for speed,rythms e.t.c.



 0:01 play it TWICE

e|--------------------------------------------------------------------------|
B|--------------------------------------------------------------------------|
G|--------------------------------------------------------------------------|
D|--------------------------------------------------------------------------|
A|--------------------------------------------------------------------------|
E|------------------------------------58------------------------------5-8-5-|
B|-1#0-1#1#1#0-1#1#1#1#0-1#1#1#0-1#1#----1#0-1#1#1#0-1#1#1#1#0-1#1#1#-3-6-3-|

 0:18

e|--------------------------------------------------------------------------|
B|--------------------------------------------------------------------------|
G|--------------------------------------------------------------------------|
D|--------------------------------------------------------------------------|
A|-6------------------------------6-------------------------------6---------|
E|-5-3-4-3--3-4-3-4--3-4-3--3-3-4-5--3-4-3--3-4-3-4--3-4-3--3-3-4-5---------|
B|-4-1-2-1--1-2-1-2--1-2-1--1-1-2-4--1-2-1--1-2-1-2--1-2-1--1-1-2-4---------|

e|--------------------------------------------------------------------------|
B|--------------------------------------------------------------------------|
G|--------------------------------------------------------------------------|
D|--------------------------------------------------------------------------|
A|------------------------------6---------------------------------6~--------|
E|-3-4-3--3-4-3-4--3-4-3--3-3-4-5--3-4-3--3-4-3-4--3-4-3--3-3-4---5~--------|
B|-1-2-1--1-2-1-2--1-2-1--1-1-2-4--1-2-1--1-2-1-2--1-2-1--1-1-2---3~--------|


 0:36

e|--------------------------------------------------------------------------|
B|--------------------------------------------------------------------------|
G|--------------------------------------------------------------------------|
D|--------------------------------------------------------------------------|
A|--------------------------------------------------------------------------|
E|-----------------------------------58-------------------------------58----|
B|-1#0-1#1#1#0-1#1#1#1#0-1#1#1#0-1#1#---1#0-1#1#1#0-1#1#1#1#0-1#1#0-46--75--|

e|--------------------------------------------------------------------------|
B|--------------------------------------------------------------------------|
G|--------------------------------------------------------------------------|
D|--------------------------------------------------------------------------|
A|--------------------------------------------------------------------------|
E|-----------------------------------58-------------------------------5-8-5-|
B|-1#0-1#1#1#0-1#1#1#1#0-1#1#1#0-1#1#---1#0-1#1#1#0-1#1#1#1#0-1#1#1#--3-6-3-|


 0:54 FAST PART

e|--------------------------------------------------------------------------|
B|--------------------------------------------------------------------------|
G|--------------------------------------------------------------------------|
D|--------------------------------------------------------------------------|
A|--------------------------------------------------------------------------|
E|-14---13---14---13----5-8--14---13---14---13----8-5-----------------------|
B|---000--000--000--000-3-6----000--000--000--000-6-3-----------------------|

e|--------------------------------------------------------------------------|
B|--------------------------------------------------------------------------|
G|--------------------------------------------------------------------------|
D|--------------------------------------------------------------------------|
A|--------------------------------------------------------------------------|
E|-14---13---14---13----5-8--14---13---14---13----8-5-----------------------|
B|---000--000--000--000-3-6----000--000--000--000-6-3--666666666666666------|


 CHORUS
 1:04

e|-----0--------------------0------------------0-----------------0----------|
B|-----0--------------------0------------------0-----------------0----------|
G|-----0--------------------0------------------0-----------------0----------|
D|7-7-7-7-7-7-7-7-----------------------------------------------------------|
A|----------------77-8-8-8-8-8-8-8-8-8--5-5-5-5-5-5-5-5-5-8-8-8-8-8-8-8-8-8-|
E|5-5-5-5-5-5-5-5-----------------------------------------------------------|
B|----------------55-6-6-6-6-6-6-6-6-6--3-3-3-3-3-3-3-3-3-6-6-6-6-6-6-6-6-6-|

e|-----0--------------------0------------------0-----------------0----------|
B|-----0--------------------0------------------0-----------------0----------|
G|-----0--------------------0------------------0-----------------0----------|
D|7-7-7-7-7-7-7-7-----------------------------------------------------------|
A|----------------77-8-8-8-8-8-8-8-8-8--5-5-5-5-5-5-5-5-5-8-8-8-8-8-8-8-8-8-|
E|5-5-5-5-5-5-5-5-----------------------------------------------------------|
B|----------------55-6-6-6-6-6-6-6-6-6--3-3-3-3-3-3-3-3-3-6-6-6-6-6-6-6-6-6-|

 1:20
e|--------------------------------------------------------------------------|
B|--------------------------------------------------------------------------|
G|--------------------------------------------------------------------------|
D|-7-777-7777-77------------------------------------------------------------|
A|-7-777-7777-77--8--5--10--8-----------------------------------------------|
E|-5-555-5555-55--8--5--10--8-----------------------------------------------|
B|--0---0----0----6--3--8---6-----------------------------------------------|


 1:26 - 1:41
 
e|--------------------------------------------------------------------------|
B|--------------------------------------------------------------------------|
G|--------------------------------------------------------------------------|
D|--------------------------------------------------------------------------|
A|--------------------------------------------------------------------------|
E|-----------------------------------58-------------------------------58----|
B|-1#0-1#1#1#0-1#1#1#1#0-1#1#1#0-1#1#---1#0-1#1#1#0-1#1#1#1#0-1#1#0-46--75--|

e|--------------------------------------------------------------------------|
B|--------------------------------------------------------------------------|
G|--------------------------------------------------------------------------|
D|--------------------------------------------------------------------------|
A|--------------------------------------------------------------------------|
E|-----------------------------------58-------------------------------5-8-5-|
B|-1#0-1#1#1#0-1#1#1#1#0-1#1#1#0-1#1#---1#0-1#1#1#0-1#1#1#1#0-1#1#1#--3-6-3-|


 1:42 - 1:59
e|--------------------------------------------------------------------------|
B|--------------------------------------------------------------------------|
G|--------------------------------------------------------------------------|
D|--------------------------------------------------------------------------|
A|-6------------------------------6-------------------------------6---------|
E|-5-3-4-3--3-4-3-4--3-4-3--3-3-4-5--3-4-3--3-4-3-4--3-4-3--3-3-4-5---------|
B|-4-1-2-1--1-2-1-2--1-2-1--1-1-2-4--1-2-1--1-2-1-2--1-2-1--1-1-2-4---------|

e|--------------------------------------------------------------------------|
B|--------------------------------------------------------------------------|
G|--------------------------------------------------------------------------|
D|--------------------------------------------------------------------------|
A|-6------------------------------6-----------------------------------------|
E|-5-3-4-3--3-4-3-4--3-4-3--3-3-4-5--3-4-3--3-4-3-4--3-4-3--3-3-4-----------|
B|-4-1-2-1--1-2-1-2--1-2-1--1-1-2-4--1-2-1--1-2-1-2--1-2-1--1-1-2-----------|


 2:00 
e|--------------------------------------------------------------------------|
B|--------------------------------------------------------------------------|
G|--------------------------------------------------------------------------|
D|--------------------------------------------------------------------------|
A|--------------------------------------------------------------------------|
E|-14---13---14---13----5-8--14---13---14---13----8-5-----------------------|
B|---000--000--000--000-3-6----000--000--000--000-6-3-----------------------|

e|--------------------------------------------------------------------------|
B|--------------------------------------------------------------------------|
G|--------------------------------------------------------------------------|
D|--------------------------------------------------------------------------|
A|--------------------------------------------------------------------------|
E|-14---13---14---13----5-8--14---13---14---13----8-5-----------------------|
B|---000--000--000--000-3-6----000--000--000--000-6-3--666666666666666------|


 CHORUS
 2:10

e|-----0--------------------0------------------0-----------------0----------|
B|-----0--------------------0------------------0-----------------0----------|
G|-----0--------------------0------------------0-----------------0----------|
D|7-7-7-7-7-7-7-7-----------------------------------------------------------|
A|----------------77-8-8-8-8-8-8-8-8-8--5-5-5-5-5-5-5-5-5-8-8-8-8-8-8-8-8-8-|
E|5-5-5-5-5-5-5-5-----------------------------------------------------------|
B|----------------55-6-6-6-6-6-6-6-6-6--3-3-3-3-3-3-3-3-3-6-6-6-6-6-6-6-6-6-|

e|-----0--------------------0------------------0-----------------0----------|
B|-----0--------------------0------------------0-----------------0----------|
G|-----0--------------------0------------------0-----------------0----------|
D|7-7-7-7-7-7-7-7-----------------------------------------------------------|
A|----------------77-8-8-8-8-8-8-8-8-8--5-5-5-5-5-5-5-5-5-8-8-8-8-8-8-8-8-8-|
E|5-5-5-5-5-5-5-5-----------------------------------------------------------|
B|----------------55-6-6-6-6-6-6-6-6-6--3-3-3-3-3-3-3-3-3-6-6-6-6-6-6-6-6-6-|

e|-----0--------------------0------------------0-----------------0----------|
B|-----0--------------------0------------------0-----------------0----------|
G|-----0--------------------0------------------0-----------------0----------|
D|7-7-7-7-7-7-7-7-----------------------------------------------------------|
A|----------------77-8-8-8-8-8-8-8-8-8--5-5-5-5-5-5-5-5-5-8-8-8-8-8-8-8-8-8-|
E|5-5-5-5-5-5-5-5-77-8-8-8-8-8-8-8---8--5-5-5-5-5-5-5-5-5-8-8-8-8-8-8-8-8-8-|
B|----------------55-6-6-6-6-6-6-6-6-6--3-3-3-3-3-3-3-3-3-6-6-6-6-6-6-6-6-6-|


e|-----0--------------------0------------------0-----------------0----------|
B|-----0--------------------0------------------0-----------------0----------|
G|-----0--------------------0------------------0-----------------0----------|
D|7-7-7-7-7-7-7-7-----------------------------------------------------------|
A|----------------77-8-8-8-8-8-8-8-8-8--5-5-5-5-5-5-5-5-5-8-8-8-8-8-8-8-8-8-|
E|5-5-5-5-5-5-5-5-77-8-8-8-8-8-8-8---8--5-5-5-5-5-5-5-5-5-8-8-8-8-8-8-8-8-8-|
B|----------------55-6-6-6-6-6-6-6-6-6--3-3-3-3-3-3-3-3-3-6-6-6-6-6-6-6-6-6-|


  2:44 - 2:51
e|--------------------------------------------------------------------------|
B|--------------------------------------------------------------------------|
G|--------------------------------------------------------------------------|
D|-7-7-7-7-7-7-7-7-7-7-7-7-7-7-7--------------------------------------------|
A|--------------------------------------------------------------------------|
E|-5-5-5-6-5-5-6-5-5-6-5-5-6-6-6--------------------------------------------|
B|--------------------------------------------------------------------------|



 HEAVY PART  (PLAY IT TWICE)
 2:52

e|--------------------------------------------------------------------------|
B|--------------------------------------------------------------------------|
G|--------------------------------------------------------------------------|
D|7-----7-----------7-------------------7-----7----------7------------------|
A|7-8-7-7-8-7-------7-8-7---------------7-8-7-7-8-7------7-8-7--------------|
E|5-8-7-5-8-7-------5-8-7555------------5-8-7-5-8-7------5-8-7888-----------|
B|--6-5---6-5-888555--6-5---666555888555--6-5---6-5888555--6-5---6665558888-|



 CHORUS
 3:09 - 3:41

e|-----0--------------------0------------------0-----------------0----------|
B|-----0--------------------0------------------0-----------------0----------|
G|-----0--------------------0------------------0-----------------0----------|
D|7-7-7-7-7-7-7-7-----------------------------------------------------------|
A|----------------77-8-8-8-8-8-8-8-8-8--5-5-5-5-5-5-5-5-5-8-8-8-8-8-8-8-8-8-|
E|5-5-5-5-5-5-5-5-----------------------------------------------------------|
B|----------------55-6-6-6-6-6-6-6-6-6--3-3-3-3-3-3-3-3-3-6-6-6-6-6-6-6-6-6-|

e|-----0--------------------0------------------0-----------------0----------|
B|-----0--------------------0------------------0-----------------0----------|
G|-----0--------------------0------------------0-----------------0----------|
D|7-7-7-7-7-7-7-7-----------------------------------------------------------|
A|----------------77-8-8-8-8-8-8-8-8-8--5-5-5-5-5-5-5-5-5-8-8-8-8-8-8-8-8-8-|
E|5-5-5-5-5-5-5-5-----------------------------------------------------------|
B|----------------55-6-6-6-6-6-6-6-6-6--3-3-3-3-3-3-3-3-3-6-6-6-6-6-6-6-6-6-|

e|-----0--------------------0------------------0-----------------0----------|
B|-----0--------------------0------------------0-----------------0----------|
G|-----0--------------------0------------------0-----------------0----------|
D|7-7-7-7-7-7-7-7-----------------------------------------------------------|
A|----------------77-8-8-8-8-8-8-8-8-8--5-5-5-5-5-5-5-5-5-8-8-8-8-8-8-8-8-8-|
E|5-5-5-5-5-5-5-5-77-8-8-8-8-8-8-8-8-8--5-5-5-5-5-5-5-5-5-8-8-8-8-8-8-8-8-8-|
B|----------------55-6-6-6-6-6-6-6-6-6--3-3-3-3-3-3-3-3-3-6-6-6-6-6-6-6-6-6-|


e|-----0--------------------0------------------0-----------------0----------|
B|-----0--------------------0------------------0-----------------0----------|
G|-----0--------------------0------------------0-----------------0----------|
D|7-7-7-7-7-7-7-7-----------------------------------------------------------|
A|----------------77-8-8-8-8-8-8-8-8-8--5-5-5-5-5-5-5-5-5-8-8-8-8-8-8-8-8-8-|
E|5-5-5-5-5-5-5-5-77-8-8-8-8-8-8-8-8-8--5-5-5-5-5-5-5-5-5-8-8-8-8-8-8-8-8-8-|
B|----------------55-6-6-6-6-6-6-6-6-6--3-3-3-3-3-3-3-3-3-6-6-6-6-6-6-6-6-6-|

  3:42
e|--------------------------------------------------------------------------|
B|--------------------------------------------------------------------------|
G|--------------------------------------------------------------------------|
D|--------------------------------------------------------------------------|
A|-****---------------------------------------------------------------------|
E|-****---------------------------------------------------------------------|
B|-****---------------------------------------------------------------------|


 FINAL CHORUS-BEATDOWN (PLAY IT *4 TIMES)
 3:43

e|-----0--------------------0------------------0-----------------0----------|
B|-----0--------------------0------------------0-----------------0----------|
G|-----0--------------------0------------------0-----------------0----------|
D|7-7-7-7-7-7-7-7-----------------------------------------------------------|
A|----------------77-8-8-8-8-8-8-8-8-8--5-5-5-5-5-5-5-5-5-8-8-8-8-8-8-8-8-8-|
E|5-5-5-5-5-5-5-5-77-8-8-8-8-8-8-8-8-8--5-5-5-5-5-5-5-5-5-8-8-8-8-8-8-8-8-8-|
B|----------------55-6-6-6-6-6-6-6-6-6--3-3-3-3-3-3-3-3-3-6-6-6-6-6-6-6-6-6-|

 
  OUTRO 
 4:17
e|--------------------------------------------------------------------------|
B|--------------------------------------------------------------------------|
G|--------------------------------------------------------------------------|
D|-7-777-7777-77----------------7-777-------7-------------------------------|
A|-7-777-7777-77--8--5--10--8---7-777-------7-------------------------------|
E|-5-555-5555-55--8--5--10--8---5-555-------5-------------------------------|
B|--0---0----0----6--3--8---6----0---0000000--------------------------------|



 THE END....ENJOY!



************************************

| /   slide up
| \   slide down
| h   hammer-on
| p   pull-off
| ~   vibrato
| +   harmonic
| x   Mute note
| b   Bend
| pb  Pre-bend
| br  Bend release
| pbr Pre-bend release
| brb Bend release bend

************************************
Tap to rate this tab
 
# A B C D E F G H I J K L M N O P Q R S T U V W X Y Z