Song name
# A B C D E F G H I J K L M N O P Q R S T U V W X Y Z

Arkaea - Locust tab

Artist: Arkaea
Song: Locust
Tabbed by: Steven Rehbein (sonicbluezx3@yahoo.com)

Intro:
C#-----------------------------------------------------------------|
G#-----------------------------------------------------------------|
E------------------------------------------------------------------|
B------------------------------------------------------------------|
F#----------------------------------------------------------1-4----|
B---1P0--1P0-1P0-1P0--1P0-1P0-1P0-1P0--1P0-1P0-1P0--1P0-1P0--------|

C#-----------------------------------------------------------------|
G#-----------------------------------------------------------------|
E------------------------------------------------------------------|
B---------------------------------------------------3-6-3----------|
F#--------------------------------------------------3-6-3----------|
B---1P0--1P0-1P0-1P0--1P0-1P0-1P0-1P0--1P0-1P0-1P0--3-6-3----------|

C#-----------------------------------------------------------------|
G#-----------------------------------------------------------------|
E------------------------------------------------------------------|
B------------------------------------------------------------------|
F#----------------------------------------------------------1-4----|
B---1P0--1P0-1P0-1P0--1P0-1P0-1P0-1P0--1P0-1P0-1P0--1P0-1P0--------|

C#---------------------------------------------------------|
G#---------------------------------------------------------|
E----------------------------------------------------------|
B---------------------------------------------------3-6-3--|
F#--------------------------------------------------3-6-3--|
B---1P0--1P0-1P0-1P0--1P0-1P0-1P0-1P0--1P0-1P0-1P0--3-6-3--|

Play this 4 times and then continue:  (variation of this chord...let this note ring out)
C#----------------------------------|---------|
G#----------------------------------|---------|
E-----------------------------------|---------|
B---4--1-2-1--1-2-1-2--1-2-1--1-1-2-|--5------|
F#--4--1-2-1--1-2-1-2--1-2-1--1-1-2-|--4------|
B---4--1-2-1--1-2-1-2--1-2-1--1-1-2-|--4------|

Verse:
C#-----------------------------------------------------------------|
G#-----------------------------------------------------------------|
E------------------------------------------------------------------|
B------------------------------------------------------------------|
F#----------------------------------------------------------1-4----|
B---1P0--1P0-1P0-1P0--1P0-1P0-1P0-1P0--1P0-1P0-1P0--1P0-1P0--------|

C#-----------------------------------------------------------------------|
G#-----------------------------------------------------------------------|
E-------------------------------------------------(may not be accurate)--|
B------------------------------------------------------------------------|
F#--------------------------------------------------0-2-3-4-3-2----------|
B---1P0--1P0-1P0-1P0--1P0-1P0-1P0-1P0--1P0-1P0-1P0-----------------------|

C#-----------------------------------------------------------------|
G#-----------------------------------------------------------------|
E------------------------------------------------------------------|
B------------------------------------------------------------------|
F#----------------------------------------------------------1-4----|
B---1P0--1P0-1P0-1P0--1P0-1P0-1P0-1P0--1P0-1P0-1P0--1P0-1P0--------|

C#---------------------------------------------------------|
G#---------------------------------------------------------|
E----------------------------------------------------------|
B---------------------------------------------------3-6-3--|
F#--------------------------------------------------3-6-3--|
B---1P0--1P0-1P0-1P0--1P0-1P0-1P0-1P0--1P0-1P0-1P0--3-6-3--|

Pre Chorus:
C#-------------------------------------------------------------------------|
G#-------------------------------------------------------------------------|
E--------------------------------------------------------------------------|
B-----7-6--7-6------7-6--7-6------7-6--7-6------7-6--7-6-------------------|
F#--------------3-6----------6-3------------3-6----------6-3---------------|
B---------------3-6----------6-3------------3-6----------6-3---6-6-6-6-6-6-|

Chorus:
C#----------------------------------------------------------------------|
G#----------------------------------------------------------------------|
E-----------------------------------------------------------------------|
B---5--5--5--5----------------------------------------------------------|
F#--3--3--3--3--5-5--6--6--6--6--6-6--3--3--3--3--3-3--6--6--6--6--6-6--|
B---------------5-5--6--6--6--6--6-6--3--3--3--3--3-3--6--6--6--6--6-6--|

C#----------------------------------------------------------------------|
G#----------------------------------------------------------------------|
E-----------------------------------------------------------------------|
B---5--5--5--5----------------------------------------------------------|
F#--3--3--3--3--5-5--6--6--6--6--6-6--3--3--3--3--3-3--6--6--6--6--6-6--|
B---------------5-5--6--6--6--6--6-6--3--3--3--3--3-3--6--6--6--6--6-6--|

C#---------------------------------------|
G#---------------------------------------|
E----------------------------------------|
B---5--5-5-5--5-5-5-5--5-5---------5-----|
F#--3--3-3-3--3-3-3-3--3-3--6--3\2-3-3---|
B---------------------------6--3\2---3---|

Verse:
C#-----------------------------------------------------------------|
G#-----------------------------------------------------------------|
E------------------------------------------------------------------|
B------------------------------------------------------------------|
F#----------------------------------------------------------1-4----|
B---1P0--1P0-1P0-1P0--1P0-1P0-1P0-1P0--1P0-1P0-1P0--1P0-1P0--------|

C#-----------------------------------------------------------------------|
G#-----------------------------------------------------------------------|
E------------------------------------------------------------------------|
B------------------------------------------------------------------------|
F#--------------------------------------------------0-2-3-4-3-2----------|
B---1P0--1P0-1P0-1P0--1P0-1P0-1P0-1P0--1P0-1P0-1P0-----------------------|

C#-----------------------------------------------------------------|
G#-----------------------------------------------------------------|
E------------------------------------------------------------------|
B------------------------------------------------------------------|
F#----------------------------------------------------------1-4----|
B---1P0--1P0-1P0-1P0--1P0-1P0-1P0-1P0--1P0-1P0-1P0--1P0-1P0--------|

C#---------------------------------------------------------|
G#---------------------------------------------------------|
E----------------------------------------------------------|
B---------------------------------------------------3-6-3--|
F#--------------------------------------------------3-6-3--|
B---1P0--1P0-1P0-1P0--1P0-1P0-1P0-1P0--1P0-1P0-1P0--3-6-3--|

Play 4 times,
C#----------------------------------|
G#----------------------------------|
E-----------------------------------|
B---4--1-2-1--1-2-1-2--1-2-1--1-1-2-|
F#--4--1-2-1--1-2-1-2--1-2-1--1-1-2-|
B---4--1-2-1--1-2-1-2--1-2-1--1-1-2-|

Pre Chorus (Once):
C#------------------------------------------------------------------------|
G#------------------------------------------------------------------------|
E-------------------------------------------------------------------------|
B----7-6--7-6------7-6--7-6------7-6--7-6------7-6--7-6-------------------|
F#-------------3-6----------6-3------------3-6----------6-3---------------|
B--------------3-6----------6-3------------3-6----------6-3---6-6-6-6-6-6-|

Chorus:
C#----------------------------------------------------------------------|
G#----------------------------------------------------------------------|
E-----------------------------------------------------------------------|
B---5--5--5--5----------------------------------------------------------|
F#--3--3--3--3--5-5--6--6--6--6--6-6--3--3--3--3--3-3--6--6--6--6--6-6--|
B---------------5-5--6--6--6--6--6-6--3--3--3--3--3-3--6--6--6--6--6-6--|

C#----------------------------------------------------------------------|
G#----------------------------------------------------------------------|
E-----------------------------------------------------------------------|
B---5--5--5--5----------------------------------------------------------|
F#--3--3--3--3--5-5--6--6--6--6--6-6--3--3--3--3--3-3--6--6--6--6--6-6--|
B---------------5-5--6--6--6--6--6-6--3--3--3--3--3-3--6--6--6--6--6-6--|

C#----------------------------------------------------------------------|
G#----------------------------------------------------------------------|
E-----------------------------------------------------------------------|
B---5--5--5--5----------------------------------------------------------|
F#--3--3--3--3--5-5--6--6--6--6--6-6--3--3--3--3--3-3--6--6--6--6--6-6--|
B---------------5-5--6--6--6--6--6-6--3--3--3--3--3-3--6--6--6--6--6-6--|

C#----------------------------------------------------------------------|
G#----------------------------------------------------------------------|
E-----------------------------------------------------------------------|
B---5--5--5--5----------------------------------------------------------|
F#--3--3--3--3--5-5--6--6--6--6--6-6--3--3--3--3--3-3--6--6--6--6--6-6--|
B---------------5-5--6--6--6--6--6-6--3--3--3--3--3-3--6--6--6--6--6-6--|

Bridge: (play 4 times)
C#-----------------------------------------------|
G#-----------------------------------------------|
E------------------------------------------------|
B------------------------------------------------|
F#--3--3--3--4--3--3--4--3--3--3--4--3--3-4-4-4--|
B------------------------------------------------|

Breakdown (play twice)
C#-----------------------------------------------------------------------|
G#-----------------------------------------------------------------------|
E------------------------------------------------------------------------|
B---10--6--5--10--6--5--8-8-8-5--10--6--5--10-10-10-6-6-6-5-5-5--8-8-8-5-|
F#--10--6--5--10--6--5--8-8-8-5--10--6--5--10-10-10-6-6-6-5-5-5--8-8-8-5-|
B---10--6--5--10--6--5--8-8-8-5--10--6--5--10-10-10-6-6-6-5-5-5--8-8-8-5-|

C#-----------------------------------------------------------------------|
G#-----------------------------------------------------------------------|
E------------------------------------------------------------------------|
B---10--6--5--10--6--5--8-8-8-5--10--6--5--10-10-10-6-6-6-5-5-5--8-8-8-5-|
F#--10--6--5--10--6--5--8-8-8-5--10--6--5--10-10-10-6-6-6-5-5-5--8-8-8-5-|
B---10--6--5--10--6--5--8-8-8-5--10--6--5--10-10-10-6-6-6-5-5-5--8-8-8-5-|


C#-----------------------------------------------------------------------|
G#-----------------------------------------------------------------------|
E------------------------------------------------------------------------|
B---10--6--5--10--6--5--8-8-8-5--10--6--5--10--6--5---8-8-8-6--5----6-5--|
F#--10--6--5--10--6--5--8-8-8-5--10--6--5--10--6--5---8-8-8-6--5--8-6-5--|
B---10--6--5--10--6--5--8-8-8-5--10--6--5--10--6--5---8-8-8-6--5----6-5--|

Chorus
C#----------------------------------------------------------------------|
G#----------------------------------------------------------------------|
E-----------------------------------------------------------------------|
B---5--5--5--5----------------------------------------------------------|
F#--3--3--3--3--5-5--6--6--6--6--6-6--3--3--3--3--3-3--6--6--6--6--6-6--|
B---------------5-5--6--6--6--6--6-6--3--3--3--3--3-3--6--6--6--6--6-6--|

C#----------------------------------------------------------------------|
G#----------------------------------------------------------------------|
E-----------------------------------------------------------------------|
B---5--5--5--5----------------------------------------------------------|
F#--3--3--3--3--5-5--6--6--6--6--6-6--3--3--3--3--3-3--6--6--6--6--6-6--|
B---------------5-5--6--6--6--6--6-6--3--3--3--3--3-3--6--6--6--6--6-6--|

C#----------------------------------------------------------------------|
G#----------------------------------------------------------------------|
E-----------------------------------------------------------------------|
B---5--5--5--5----------------------------------------------------------|
F#--3--3--3--3--5-5--6--6--6--6--6-6--3--3--3--3--3-3--6--6--6--6--6-6--|
B---------------5-5--6--6--6--6--6-6--3--3--3--3--3-3--6--6--6--6--6-6--|

C#----------------------------------------------------------------------|
G#----------------------------------------------------------------------|
E-----------------------------------------------------------------------|
B---5--5--5--5----------------------------------------------------------|
F#--3--3--3--3--5-5--6--6--6--6--6-6--3--3--3--3--3-3--6--6--6--6--6-6--|
B---------------5-5--6--6--6--6--6-6--3--3--3--3--3-3--6--6--6--6--6-6--|

Same notes but the rhythm changes up a bit for the outro:
C#----------------------------------------------------------------------|
G#----------------------------------------------------------------------|
E-----------------------------------------------------------------------|
B---5--5--5--5----------------------------------------------------------|
F#--3--3--3--3--5-5--6--6--6--6--6-6--3--3--3--3--3-3--6--6--6--6--6-6--|
B---------------5-5--6--6--6--6--6-6--3--3--3--3--3-3--6--6--6--6--6-6--|

C#----------------------------------------------------------------------|
G#----------------------------------------------------------------------|
E-----------------------------------------------------------------------|
B---5--5--5--5----------------------------------------------------------|
F#--3--3--3--3--5-5--6--6--6--6--6-6--3--3--3--3--3-3--6--6--6--6--6-6--|
B---------------5-5--6--6--6--6--6-6--3--3--3--3--3-3--6--6--6--6--6-6--|

C#----------------------------------------------------------------------|
G#----------------------------------------------------------------------|
E-----------------------------------------------------------------------|
B---5--5--5--5----------------------------------------------------------|
F#--3--3--3--3--5-5--6--6--6--6--6-6--3--3--3--3--3-3--6--6--6--6--6-6--|
B---------------5-5--6--6--6--6--6-6--3--3--3--3--3-3--6--6--6--6--6-6--|

C#----------------------------------------------------------------------|
G#----------------------------------------------------------------------|
E-----------------------------------------------------------------------|
B---5--5--5--5----------------------------------------------------------|
F#--3--3--3--3--5-5--6--6--6--6--6-6--3--3--3--3--3-3--6--6--6--6--6-6--|
B---------------5-5--6--6--6--6--6-6--3--3--3--3--3-3--6--6--6--6--6-6--|

C#----------------------------------------------------------------------|
G#----------------------------------------------------------------------|
E-----------------------------------------------------------------------|
B---5--5--5--5----------------------------------------------------------|
F#--3--3--3--3--5-5--6--6--6--6--6-6--3--3--3--3--3-3--6--6--6--6--6-6--|
B---------------5-5--6--6--6--6--6-6--3--3--3--3--3-3--6--6--6--6--6-6--|

Let the last note ring out
C#---------------------------------------------------------------|
G#---------------------------------------------------------------|
E----------------------------------------------------------------|
B---5--5-5-5--5-5-5-5--5-5---------5------5--5-5-5----5-5-5-5-5--|
F#--3--3-3-3--3-3-3-3--3-3--6--3\2-3-3----3--3-3-3----3-3-3-3-3--|
B---------------------------6--3\2---3----3--3-3-3---------------|


That's it! Some of it is hard to hear, so keep that in mind when noticing errors.
Tap to rate this tab
 
# A B C D E F G H I J K L M N O P Q R S T U V W X Y Z