Song name
# A B C D E F G H I J K L M N O P Q R S T U V W X Y Z

Arkangel - How We See The World tab

Arkangel - How We See The World ( hardcore band from Belgium ).
Here is their MySpace: http://www.myspace.com/privatehell

Tabbed by ear by Sik666.

I know that my tab isn't exactly the same, specially on these hard rhytmic parts, 
but you can already be close to the song.

* = sustain
h = hammer-on
p = pull-off

00:02>00-21
|------------------------------------------------------|
|------------------------------------------------------|
|------------------------------------------------------|
|----------------------------------------2222----------|
|-7-8-10--8-10-11--7-8-10--8-10-11-11-10-2222--8-7-5-7-|
|----------------------------------------2222----------|

00:21>00:29
|---------------------------------------------------------|
|---------------------------------------------------------|
|---------------------------------------------------------|
|-2222-3p2--2222-3p2-222222-222222-222--222222-222222-222-|
|-2222------2222-----222222-222222-222--222222-222222-222-|
|-2222------2222-----222222-222222-222--222222-222222-222-|

00:29>00:39
|------------------------------------------------------------------------------------------|
|------------------------------------------------------------------------------------------|
|------------------------------------------------------------------------------------------|
|----------------------------------2222-3p2--2222-3p2-222222-222222-222--222222-222222-222-|
|-7-8-10--8-10-11--7-8-10--8-10-11-2222------2222-----222222-222222-222--222222-222222-222-|
|----------------------------------2222------2222-----222222-222222-222--222222-222222-222-|

00:39>00:44
|--------------------------------------------------------------------|
|--------------------------------------------------------------------| 
|--------------------------------------------------------------------|
|--------------------------------------------------------------------|
|-7-8-10--8-10-11--7-8-10--8-10-11--7-8-10--8-10-11--7-8-10--8-10-11-|
|--------------------------------------------------------------------|

00:44>00:59
|--------------------------------------------|
|--------------------------------------------|
|--------------------------------------------|
|-22-22-3p2--22-22-3p2-22-22-5p3-22-22-3h5p3-|
|-22-22------22-22-----22-22-----22-22-------|
|-22-22------22-22-----22-22-----22-22-------|

00:59>01:04
|---------------------------------------------|
|---------------------------------------------|
|---------------------------------------------|
|-2222-2h3p2-2222-2h3p2-2222-3h5p3-2222-3h5p3-|
|-2222-------2222-------2222-------2222-------|
|-2222-------2222-------2222-------2222-------|

01:04>01:19
|--------------------------------------------|
|--------------------------------------------|
|--------------------------------------------|
|-2222-2h3p2-2222-2h3p2-2222-3h5p3-2222-6-5*-|
|-2222-------2222-------2222-------2222-6-5*-|
|-2222-------2222-------2222-------2222-6-5*-|

01:19>01:24
|----------|
|----------|
|-/13~-12~-|
|----------|
|----------|
|----------|

01:24>01:35
|--------------------------------------|
|--------------------------------------|
|--------------------------------------|
|-2222222222222222222222---------------|
|-2222222222222222222222-2222333332222-|
|-2222222222222222222222---------------|

01:35>01:41
|-------------------------------------|
|------------------------000011110000-|
|-------------------------------------|
|-2222222222222222222222--------------|
|-2222222222222222222222--------------|
|-2222222222222222222222--------------|

01:41>01:47
|--------------------------------------|
|--------------------------------------|
|--------------------------------------|
|-2222222222222222222222---------------|
|-2222222222222222222222-2222333332222-|
|-2222222222222222222222---------------|

01:47>02:18
|-------|
|-------|
|-------|
|-2-XXX-|
|-2-XXX-|
|-2-XXX-|

02:18>03:22 Boring part without instruments.
Tap to rate this tab
 
# A B C D E F G H I J K L M N O P Q R S T U V W X Y Z