Song name
# A B C D E F G H I J K L M N O P Q R S T U V W X Y Z

Arkells - No Champagne Socialist tab

Arkells - No Champagne Socialist

Intro:

e|-2-2-2-2--------3-3-3-3---------|
B|-3-3-3-3--------3-3-3-3---------|
G|-2-2-2-2--------0-0-0-0---------|
D|-0-0-0-0-------2--2-0-0-----0---|
A|--------3-2-2h3---3-2-2-0h2-----|
E|--------------------3-3---------|


Chorus:

   *Harmonica*
e|-2-2--3-2-0-0-3---3-3-3-3-----3---|
B|-3-3--3-3-3-3-3---3-3-3-3-----3---|
G|-2-2--0-2-0-0-0---0-0-0-0-----0---|
D|-0-0-02-0-0-0-0--2--2-0-0-----0---|
A|----------3-2-2h3---3-2-2-0h2-----|
E|----------------------3-3---------|


Verse:

    "Let the record show..."
e|------3----2---(2)----|
B|-3----3----3---(3)----|
G|-2----0----2---(2)----|
D|-0----0----0---(0)----|
A|-0----2---------------|
E|-2----3---------------|


Pre-Chorus:

   "So he continues..."
e|-3----1----0----|
B|-3----1----0----|
G|-0----2----0----|
D|-0----3----2----|
A|-2----3----2----|
E|-3----1----0----|


Solo (over Chorus riff):

   *This figure x4*
e|------------------------------------------------------------------------|
B|------------------------------------------------------------------------|
G|-9-7---7------------------------------------7-9b11-9b11-9b11-9b11-9-7---|
D|-----9---9-7-9-7---7---------------------7h9----------------------------|
A|-----------------9---9-7-9-7----------7h9-------------------------------|
E|-----------------------------10---7h10----------------------------------|

   *Next two figures x2*
e|------------------------------------------------------------------------|
B|------------------------------------------------------------------------|
G|-9b11r9--9b11r9--9b11r9--7--7--7h9p7---7h9p7---7h9p7---7h9p7---7h9p7----|
D|------------------------------------9-------9-------9-------9-------9---|
A|------------------------------------------------------------------------|
E|------------------------------------------------------------------------|

e|------------------------------------------------------------------------|
B|------------------------------------------------------------------------|
G|-9b11r9--9b11r9--9b11r9--7--7--9tm-----11tm-----12tm-----14tm-----------|
D|------------------------------------------------------------------(12)--|
A|------------------------------------------------------------------------|
E|------------------------------------------------------------------------|


Repeat individual sections as necessary.

---

Lyrics:

Verse 1:
Let the record show
It's 1964, in the city of New York

And take the train to Queens
And meet a Jewish family
He's the youngest one of three

And his brothers have left home
And he's on the same road
Just credits shy of a diploma

But he wants to represent
The struggling with rent
But he can't live on both sides of the fence

Pre-Chorus:
So he continues to insist that he's no champagne socialist

(Chorus)

Verse 2:
And he's not coming back
After studying the facts
He knows of all the problems of the past

But he's quick to concede
That in order to proceed
We can't just keep on preaching what we need

To become a working man
Is to live and work with them
And this is something you can't pretend

Pre-Chorus:
So he continues to insist that he's no champagne socialist

(Chorus/Solo)

That he's no champagne socialist
He's no champagne socialist

---

Enjoy.
Tap to rate this tab
 
# A B C D E F G H I J K L M N O P Q R S T U V W X Y Z