Song name
# A B C D E F G H I J K L M N O P Q R S T U V W X Y Z

Arkells - Tragic Flaw tab

Arkells - Tragic Flaw

Intro/Verse:

(Bass)
G|-------------------------------------------------------------------|
D|-------------2-4-------------2-4-----------------------------------|
A|-2-2-2-2-2-2-----0-0-0-0-0-0-----------------0-2---------------0---|
E|---------------------------------3-3-3-3-3-3-----0-0-0-0-0-0-2-----|

(Rhythm)
         "Oh don't say it..."
e|---2---2---2---2---0---0---0---0---3---3---3---3---0---0---0---0---|
B|---3---3---3---3---2---2---2---2---3---3---3---3---0---0---0---0---|
G|---4---4---4---4---2---2---2---2---0---0---0---0---1---1---1---1---|
D|---4---4---4---4---2---2---2---2---0---0---0---0---2---2---2---2---|
A|---2---2---2---2---0---0---0---0---2---2---2---2---2---2---2---2---|
E|-----------------------------------3---3---3---3---0---0---0---0---|

(Lead)
e|-------------------------------------------------------------------|
B|--/7-5---5--------/7-5------------/7-5---5--------/7-5-------5-----|
G|-------7---7---7-------7-6-7-6-4-------7---7---7-------7-6-7---4---|
D|-------------------------------------------------------------------|
A|-------------------------------------------------------------------|
E|-------------------------------------------------------------------|


Chorus:

(Rhythm)
  "'Cause she's beautiful..."
e|---2---2---3---3---2---2---0---0---|
B|---3---3---3---3---3---3---0---0---|
G|---2---2---0---0---4---4---1---1---|
D|---0---0---0---0---4---4---2---2---|
A|-----------2---2---2---2---2---2---|
E|-----------3---3-----------0---0---|

(Lead)
e|-----------------------------------|
B|---7-------8-------10------9-------|
G|-----------------------------------|
D|-----------------------------------|
A|-----------------------------------|
E|-----------------------------------|


Bridge:

(Rhythm)
e|---3---3---3---3---0---0---0---0---2---2---2---2---0---0---0---0---|
B|---3---3---3---3---2---2---2---2---3---3---3---3---0---0---0---0---|
G|---0---0---0---0---2---2---2---2---4---4---4---4---1---1---1---1---|
D|---0---0---0---0---2---2---2---2---4---4---4---4---2---2---2---2---|
A|---2---2---2---2---0---0---0---0---2---2---2---2---2---2---2---2---|
E|---3---3---3---3-----------------------------------0---0---0---0---|

(Lead)
e|---5-------------------------------5-------------------------------|
B|---------------7---5-------7-------------------7---5-------7-------|
G|-------------------------------7-----------------7-------------7---|
D|-------------------------------------------------------------------|
A|-------------------------------------------------------------------|
E|-------------------------------------------------------------------|


End(lead on top of intro progression):

e|-------------------------------------------------10tm----12tm----14---|
B|-10tm----12tm----10tm----9tm-----10tm----12tm-------------------------|
G|----------------------------------------------------------------------|
D|----------------------------------------------------------------------|
A|----------------------------------------------------------------------|
E|----------------------------------------------------------------------|


Repeat individual sections as necessary.

---

Lyrics:

Verse 1:
Oh don't say it, just don't say it
Well ah shit, it just came out
Once again, couldn't hold it in
and that's my tragic flaw without a doubt
She's wearing jogging pants and she's buying sweatshirts
And you know that's fine with me
Because that might cover the chance
That another boy might see

Chorus:
That she's beautiful
But she's going away
Everything that runs in my head
I just have to say
'Cause I'm selfish
And a bit insecure
But her reassuring words
will always be the cure

Verse 2:
And I know there's gonna be nights
There's gonna be nights on the phone
When all we'll do is fight now
But I got to remember now she's on her own
And I wanna be the good guy so bad
In fact, it's in my head
She says something that bother me just a tad
But I will hold it in instead

Chorus

Bridge

And she's beautiful
But she's on the next train
Everything that runs in my head
I just have to say
And I can't help it, no
That I'm a bit insecure
But her reassuring words
will always be the cure

Intro w/ End Lead

---

The intro is bass only for one full progression, full band for two, then the lead drops 
and the vocals start up for the verse.
Enjoy.
Tap to rate this tab
# A B C D E F G H I J K L M N O P Q R S T U V W X Y Z