Song name
# A B C D E F G H I J K L M N O P Q R S T U V W X Y Z

Arkells - Ballad Of Hugo Chavez tab

-------------------------------------------------------------------------------
	             BALLAD OF HUGO CHAVEZ- Arkells
-------------------------------------------------------------------------------
Tabbed by:mandrews905


Tuning:Standard

e|---------------------------------------------------------------------------|
B|---------------------------------------------------------------------------|
G|-------7-------------------------------7-----------------------------------|
D|-----------------9----7----9---------------------9----7----9---------------|
A|---------------------------------------------------------------------------|
E|---------------------------------------------------------------------------|

e|-----------------------------------------------------------------------------|
B|-----------------------------------------------------------------------------|
G|---------7-------------7-------------------7/10--10-9-7----------------------|
D|----------------9-------------9----------------------------------------------|
A|-----------------------------------------------------------------------------|
E|-----------------------------------------------------------------------------|

Repeat

By the way I'm not so sure about this whole capo on the 2nd fret stuff I've been 
this video http://www.youtube.com/watch?v=hJwH-3ju54I and watch both of them play...you can 
see that the lead guitarist plays different chords to accent the standard chords played.


************************************

| /   slide up
| \   slide down
| h   hammer-on
| p   pull-off
| ~   vibrato
| +   harmonic
| x   Mute note
| b   Bend
| pb  Pre-bend
| br  Bend release
| pbr Pre-bend release
| brb Bend release bend

************************************
Tap to rate this tab
 
# A B C D E F G H I J K L M N O P Q R S T U V W X Y Z