Song name
# A B C D E F G H I J K L M N O P Q R S T U V W X Y Z

Arkells - Abigail tab

Arkells - Abigail

Intro/Verse:

       "Abigail knew too well..."
(Lead/Piano)
e|-------------------------------------------------------------------|
B|-------------------------------------------------------------------|
G|-9---9---9---9---9---9---9---9---9---9---9---9---9---9---9---9-----|
D|---11--11--11--11--11--11--11--11--11--11--11--11--11--11--11--11--|
A|-0-------------------------------9---------------------------7-----|
E|-------------------------------------------------------------------|

(Rhythm)
e|-------------------------------------------------------------------|
B|-5-5-5-5-5-5-77775-5-5-5-5-5-77775-5-5-5-5-5-77775-5-5-5-5-5-7777--|
G|-6-6-6-6-6-6-77776-6-6-6-6-6-77776-6-6-6-6-6-77776-6-6-6-6-6-7777--|
D|-------------------------------------------------------------------|
A|-------------------------------------------------------------------|
E|-------------------------------------------------------------------|

(Bass)
G|-------------------------------------------------------------------|
D|-------------------------------------------------------------------|
A|------------------------4444------------4444------------4444-------|
E|-5555---5555-----5555------------2222------------2222--------0-----|


       "She watched his eyes..."       ("And Abby wondered aloud...")
(Lead/Piano)
e|-------------------------------------------------------------------|
B|---------------------------------0---------------------------------|
G|-9---9---9---9---9---9---9---9---9---9---9---9---9---9---9---9-----|
D|---11--11--11--11--11--11--11--11--12--12--12--12--12--12--12--12--|
A|-0-----------------------------------------------------------------|
E|-------------------------------------------------------------------|

(Rhythm)
e|---------------------------------0---------------0-----------------|
B|-5-5-5-5-5-5-77775-5-5-5-5-5-77--3------2--------2-----------------|
G|-6-6-6-6-6-6-77776-6-6-6-6-6-77--4------------2--------------------|
D|---------------------------------4---------------------------------|
A|---------------------------------2---------------------------------|
E|-------------------------------------------------------------------|

(Bass)
G|-------------------------------------------------------------------|
D|-------------------------------------------------------------------|
A|------------------------4444-----2222---2222-----2222---2222-------|
E|-5555---5555-----5555----------------------------------------------|

Chorus:

                   "Where did all the..."
(Lead/Piano)
e|-----7-------7-------7-------7-------7-------7-------7-------7-----|
B|-10------10------10------10------10------10------10------10--------|
G|---9---9---9---9---9---9---9---9---9---9---9---9---9---9---9---9---|
D|-------------------------------------------------------------------|
A|-------------------------------------------------------------------|
E|-------------------------------------------------------------------|

(Rhythm)
e|-------------------------------------------------------------------|
B|-7777---7777-----7777---7777---------------------------------------|
G|-7777---7777-----7777---7777-----6666---6666-----6666---6666-------|
D|-7777---7777-----7777---7777-----7777---7777-----7777---7777-------|
A|-5555---5555-----5555---5555-----7777---7777-----7777---7777-------|
E|---------------------------------5555---5555-----5555---5555-------|

(Bass)
G|-------------------------------------------------------------------|
D|-------------------------------------------------------------------|
A|-5555---5555-----5555---5555----------------------------4444-------|
E|---------------------------------5555---5555-----5555--------------|


                                   "I know you know..."
(Lead/Piano)
e|-7777777777777777777777777777777-----7-------7---------------------|
B|-9999999999999999999999999999999-10------10------------------------|
G|-9999999999999999999999999999999---9---9---9---9-------------------|
D|-------------------------------------------------12--11--12--11----|
A|-------------------------------------------------------------------|
E|-------------------------------------------------------------------|

(Rhythm)
e|-------------------------------------------------------------------|
B|-55555555555555555555555555555555-7777---7777----------------------|
G|-66666666666666666666666666666666-7777---7777-----2---2---2---2----|
D|-66666666666666666666666666666666-7777---7777-----4---2---4---2----|
A|-44444444444444444444444444444444-5555---5555-----5---4---5---4----|
E|-------------------------------------------------------------------|

(Bass)
G|-------------------------------------------------------------------|
D|-------------6666------------6666----------------------------------|
A|-444444444477----444444444477---------------------5---4---2---4----|
E|----------------------------------2222---2222----------------------|

Solo:

(Over verse structure)
e|------------------------------------------------------------------------|
B|-10-10-8-10----8----10-10-8-10---9--------------------------------------|
G|--------------------------------------11p9--9h11p9---------------9------|
D|------------------------------------------11------11p9-------9h11-11----|
A|------------------------------------------------------12p9h12-------12--|
E|------------------------------------------------------------------------|

e|----------------------------------------------------|
B|----------------------------------------------------|
G|-11p9--11p9--11p9--11p9--11p9--11p9--11p9-11---9----|
D|----------------------------------------------------|
A|----------------------------------------------------|
E|----------------------------------------------------|

e|------------------------------------------------------------------------|
B|-10-10-8-10----8----10-10-8-10---9--------------------------------------|
G|--------------------------------------11p9--9h11p9---------------9------|
D|------------------------------------------11------11p9-------9h11-11----|
A|------------------------------------------------------12p9h12-------12--|
E|------------------------------------------------------------------------|

e|----------------------------------------------------|
B|-------------------------10-------------------------|
G|-11p9--11p9--11p9--11p9----11-9----9----------------|
D|--------------------------------11---11-9-----------|
A|------------------------------------------12-12/14--|
E|----------------------------------------------------|

Bridge:

       "And then he turned..."
(Piano/Lead)
e|-----------------------------------|
B|-----------------------------------|
G|-7---7---7---7---6---6---2---2-----|
D|---9---9---9---9---7---4---4---4---|
A|-----------------------------------|
E|-----------------------------------|

(Rhythm)
e|-2---------------0-----2-----------|
B|-3---------------2-----2-----------|
G|-4---------------2-----2-----------|
D|-4---------------2-----4-----------|
A|-2---------------0-----4-----------|
E|-----------------------2-----------|

(Bass)
G|-----------------------------------|
D|-----------------------------------|
A|-2---------------0-----------------|
E|-----------------------2-----------|


First "My love..."
(Piano/Lead)
e|---------9---------------9---------------9---------------9--------|
B|-10--10------10--10--10------10--10--10------10--10--10------10---|
G|---9---9---9---9---9---9---9---9---9---9---9---9---9---9---9---9--|
D|------------------------------------------------------------------|
A|------------------------------------------------------------------|
E|------------------------------------------------------------------|

(Rhythm)
e|------------------------------------------------------------------|
B|-5-------------------------------3--------------------------------|
G|-6-------------------------------2--------------------------------|
D|-7-------------------------------4--------------------------------|
A|-5-------------------------------2--------------------------------|
E|------------------------------------------------------------------|

(Bass)
G|------------------------------------------------------------------|
D|------------------------------------------------------------------|
A|-5-------------------------------2--------------------------------|
E|------------------------------------------------------------------|


Second "My love..."
(Piano/Lead)
e|---------9---------------9---------------9---------------9--------|
B|-10--10------10--10--10------10--10--10------10--10--10------10---|
G|---9---9---9---9---9---9---9---9---9---9---9---9---9---9---9---9--|
D|------------------------------------------------------------------|
A|------------------------------------------------------------------|
E|------------------------------------------------------------------|

(Rhythm)
e|------------------------------------------------------------------|
B|-5-------------------------------5555---5555------5555---5555-----|
G|-6-------------------------------6666---6666------6666---6666-----|
D|-7-------------------------------7777---7777------7777---7777-----|
A|-5-------------------------------5555---5555------5555---5555-----|
E|------------------------------------------------------------------|

(Bass)
G|------------------------------------------------------------------|
D|------------------------------------------------------------------|
A|-5-------------------------------5555---5555------5555---5555-----|
E|------------------------------------------------------------------|


Repeat individual sections as necessary.

---

Lyrics:

Verse 1:
Abigail knew too well what Zach was thinking.
She watched his eyes stare at his empty, uneasy hands.
He started sinking in his chair.
She knew Zach cared, but didn't know and was afraid,
Of what tomorrow held.
She'd feel better if he stayed, and Abby wondered aloud...

Chorus:
"Where did all our good plans go?
What do you feel? I know you know..."

Verse 2:
Elevator music filled a food court in a mall.
It was covering the empty sound,
of no conversation at all.
"Back to work," she said to Zach,
"My break's almost done."
"Oh Abigail, I only wish you knew where I was coming from." And Abby wondered aloud...

Chorus

Bridge:
Then he turned and said, "I'll go home instead...
Oh Abigail, you're not making sense.
My love, what have we become?
My love, what have we become?"

Chorus

End with Intro

---

Intro begins with only piano/lead, then the bass kicks in eventually during the first 
rhythm guitar comes along in the second verse.
The song ends by going back to the intro/verse pattern with only the piano/lead.
Enjoy.
Tap to rate this tab
 
# A B C D E F G H I J K L M N O P Q R S T U V W X Y Z