Song name
# A B C D E F G H I J K L M N O P Q R S T U V W X Y Z

Arkells - Whistleblower tab

E|---------------------------------------------------------------------------|
B|---------------------------------------------------------------------------|
G|-------------12--12/14--12----------------------12--12/14--12--------------|
D|--10/12--10-----------------14--12--10--12--10-----------------14--12--10--|
A|---------------------------------------------------------------------------|
E|---------------------------------------------------------------------------|



E|---------------------------------------------------------------------------|
B|---------------------------------------------------------------------------|
G|-------------12--12/14--12----------------------12--12/14--12--------------|
D|--10/12--10-----------------14--12--10--12--10-----------------14--12--10--|
A|---------------------------------------------------------------------------|
E|---------------------------------------------------------------------------|



E|----------------------------------------|
B|----------------------------------------|
G|-------------12/14--12------12----------|
D|--10/12--10-------------14------14--12--|
A|----------------------------------------|
E|----------------------------------------|
Tap to rate this tab
# A B C D E F G H I J K L M N O P Q R S T U V W X Y Z