Guitaretab - guitar tabs
Song name
# A B C D E F G H I J K L M N O P Q R S T U V W X Y Z

Arling And Cameron - Shivas R And R Dub tab

Shiva's R&R Dub
Arling & Cameron

Tabbed by Isaac Fennell

=)

Ok people, after much searching i decided it's gonna be ages until someone tabs this...
i went for it. It sounds pretty close, but its not gonna be perfect and i think theres 2
in there. This is more of a starting point for you to play around with, so feel free to 
corrections / variations / additions.

Listen to the full song here - http://www.youtube.com/watch?v=LjQjvEh77Gg

There's 2 ways to play it really, if it's just you playing then I'd go for the open C
to give you the fuller sound, or if you're jamming with a friend go for the regular tuning
style tabbed underneath...


Open C - CGCGCE (bottom to top strings)

Main Riff

--------------------------------|
--------0-----------------------|
----x---5---------5---5----5----| *  Palm mute the last notes of the riff
----x---0---------0---3^ --0----| *  before repeating it
----x---0---------0---0----0----| *
--------0-----------------------|

1st Fill

-------------------------------------------|
---------------------5-----5^ 5------------|
--5---8---8---5--8-----8---------8--5--8---|
-------------------------------------------|
-------------------------------------------|
-------------------------------------------|

2nd Fill
[ Tab from: http://www.guitaretab.com/a/arling-and-cameron/114496.html ]
----------------------------------------|
------5^ -5-----------------------------|
--------------8--5--3--3--0-----3--5----|
---7-------------------------5----------|
----------------------------------------|
----------------------------------------|

Thats all for now... work some more out your self Ė itís not very hard

Standard Tuning Style

Main Riff (Guitar 1)

---------------------------------|
---------------------------------|
---------------------------------|
---------------------------------| *
--x---10------10---10-----10-----| * Palm mute before repeating riff
--x----8------8----8^ ----8------| *

Main Riff (Guitar 2)

-----------------------------------------|
-----------------------------------------|
-----------------------------------------|
--10----10-------8h10--------------------|
-------------10--------------------------|
-----------------------------------------|


1st Fill (Guitar 2)

------------------------------------------------------|
------------------------------------------------------|
-------8-------8---10---8--10^ -10---8------8^ -------|
---10-----10----------------------------10------------|
------------------------------------------------------|
------------------------------------------------------|

2nd Fill

-----------------------------------------------|
-----------------------------------------------|
-------10^ 10------8---------------------------|
---10----------10-----10--10------8--10--10~---|
-----------------------------10----------------|
-----------------------------------------------|

Again itís just a start really, you can work out the rest of the fills pretty easy, or
do your own on the C blues scale :)