Arlo Guthrie - City Of New Orleans tab

Title: City of New Orleans
Tabbed by Keith Chirsan
For educational use.
Artist: Arlo Guthrie
Tempo = 180
Electric Guitar

Legend
L - tied note
x - dead note
h - hammer on/pull off
b - bend
s - slide
~ - vibrato
g - ghost note
> - accentuated note
t - trill
M - palm mute
. - staccato
P - popping (bass)
S - slapping (bass)
+ - tapping
W - wide vibrato
< - fade in
w - whammy bar
= - tremolo picking
v - brush up
^ - brush down
V - pick stroke up
n - pick stroke down


E |----------------|----------------------------|----------------------------|
B |----------------|--3--3-----3--------3-------|--3--3-----3--------1--1L---|
G |----------------|--0--0-----0--------0-------|--------2-----------2--2L---|
D |----------------|--------0-----------0-------|--0-----------0-------------|
A |-----3M-2M-0M---|----------------------------|----------------------------|
E |----------------|--3M----------3M------------|----------------------------|


----------------|----------------|----------------------------|
--1--0----------|----------------|--0--0--0-----0-------------|
--2--0----------|----------------|--------------------0-------|
-----------0----|-----0----------|--------2-----------2-------|
----------------|----------------|----------------------------|
--3M----3M------|--3M----3M-2M---|--0-----------0-------------|


----------------------------|----------------|--3--2--0-------|
--1-----1-----1--1-----3L---|--3-------------|-----------3----|
----------------------------|----------------|-----2-----2----|
--------2-----------2-------|-----0-----0----|--0-----0-------|
--3M----------3M------------|----------------|----------------|
----------------------------|--3M----3M------|----------------|


----------------------------|----------------------------|----------------|
--3--3-----3--------3-------|--3--3-----3L-3-----1-------|--1--0----------|
----------------------------|--------2-----------2-------|----------------|
--------0-----------0-------|--0-----------0-------------|-----0-----0----|
----------------------------|----------------------------|----------------|
--3M----------3M------------|----------------------------|--3-----3M------|


----------------------------|----------------|----------------------------|
--------------------0--0----|--0-------------|--3--3--3-----3-------------|
----------------------------|-----0-----0----|--------2-----------2--0L---|
--------0-------------------|-----2-----2----|--0-----------0-------------|
----------------------------|----------------|----------------------------|
--3M----------3M----2M------|--0M----0M------|----------------------------|


----------------|----------------------------|----------------|
----------------|--------------------0--0----|--0--0--0--0----|
--0-------------|----------------------------|----------------|
-----0-----0----|--------0-------------------|-----2-----2----|
----------------|----------------------------|----------------|
--3M----3M------|--3M----------3M----2M------|--0M----0M------|


----------------------------|----------------|----------------------------|
--0--0-----0--------0-------|----------------|----------------------------|
----------------------------|--4--4--4--4----|--4--------4--4-----4-------|
--------2-----------2-------|-----4-----4----|-----------4--------4-------|
----------------------------|--2M----2M------|--2M----------2M------------|
--0M----------0M------------|----------------|----------------------------|


----------------------------|----------------------------|--0-------------|
--3--------3--3-----3-------|--3--3-----3--------3-------|--2~-2----------|
-----------2--------2-------|--------2-----0-----2-------|--2--2----------|
--0-----------0-------------|--0-------------------------|--2--2-----2----|
----------------------------|----------------------------|--0M----0M------|
----------------------------|----------------------------|----------------|


----------------------------|----------------------------|----------------|
----------------------------|--0-----0-----0--------0----|--0--0--0--0----|
----------------------------|--0-----0-----0-------------|-----0--0--0----|
--------2-------------------|--------2--------------2----|-----2-----2----|
--0M----------0M------------|----------------------------|----------------|
-----------------3M-2M-0M---|--0M----------0M------------|--0M----0M------|


----------------------------|----------------------------|
----------------------------|----------------------------|
--4-----4-----------4--4----|--4-----4-----4-----4-------|
--4-----4-----------4--4----|--4-----4-----4-----4--4----|
--------2-----------2-------|----------------------------|
--2M----------2M------------|--2M----------2-------------|


----------------------------|----------------------------|----------------|
--3-----3-----------3--3----|--1--1--------1--0----------|----------------|
--------2-----------2-------|--2--2--------2-----2--0L---|--0-------------|
--0-----------0-------------|--0-----------0-------------|-----0-----0----|
----------------------------|----------------------------|----------------|
----------------------------|----------------------------|--3M----3M------|


----------------|--3-----3-----------3--3----|--2--2-----2----------------|
--------1--3----|--1-----1-----------1--1----|--3--3-----3--------1--1L---|
-----0--2--4----|----------------------------|--------2-----------2-------|
-----0--2--4----|--------2-----------2-------|--0-----------0-------------|
----------------|--3M----------3M------------|----------------------------|
--3M------------|----------------------------|----------------------------|


----------------|----------------|----------------------------|
--1--0----------|----------------|--0--------0--0-----0-------|
-----0----------|----------------|--0-----------0-----0-------|
-----0-----0----|-----0M---------|-----------2--------2-------|
----------------|----------------|----------------------------|
--3M----3M------|--3M----3M-2M---|--0M----------0M------------|


----------------------------|----------------|--3-----2-----0-------------|
--1-----1-----1--1----------|--3-------------|--------------------3--3----|
--0-----0-----0-------------|----------------|--------2-----------2-------|
--------2--------2----------|-----0-----0----|--0-----------0-------------|
--3M----------3M------------|----------------|----------------------------|
----------------------------|--3M----3M------|----------------------------|


----------------------------|--------------------0-------|
--3-----3-----3--------3----|--3--3-----3----------------|
--0-----0-----0--------0----|--2-----2-------------------|
--------0--------------0----|--0-----------0-------------|
----------------------------|----------------------------|
--3M----------3M------------|----------------------------|


--0-------------------------|----------------------------|--1--1--0--0----|
--0-------------------------|--------------------3--3----|--3-----1-------|
--0--2h-0-------------------|----------------------------|--3-----0-------|
----------------------------|----------------------------|--------2-------|
----------------------------|--0M------------------------|--3M------------|
--0M----------0M-2M-3M-4M---|----------------------------|----------------|


----------------------------|----------------------------|
--3-----3--3--1--0----------|----------------------------|
--2--------2-----------0L---|--0-------------------------|
--0--------0----------------|----------------------------|
----------------------------|-----------0M-2M-0M---------|
----------------------------|--3M----------------0M-2M---|


-----0--2-----3-------------||
-----0--2-----3-------------||
-----0--3-----4-------------||
--------4-----5-------------||
----------------------------||
--3M------------------------||

Tap to rate this tab
 
# A B C D E F G H I J K L M N O P Q R S T U V W X Y Z