Song name
# A B C D E F G H I J K L M N O P Q R S T U V W X Y Z

Arlo Guthrie - Alices Restaurant Massacree tab

----------------------------------------------------------------------
			  Alice's Restaurant
                             Arlo Guthrie
----------------------------------------------------------------------
 Tabbed by:Alan C Brown
 Email:aladonna@talktalk.net

 Tuning: Standard with capo on the 2nd fret.
 
 This is my simplified version using a few other versions i have heard 
 over the years.  Once learnt you can add the odd changes to suit.  But 
 if you want to learn it and remember it quickly then this is for you.

 Listn to the CD for the changes. 


e|-----------0--------0---------5--3-----------0-----------0---------|
B|--0--1--3-----1--4------------------5-----3-----------0--------1---|
G|------------------------0--------------------------0---------------|
D|--------------2-------2-------2--------2--------4-----------0------|
A|-----0--2--3-----3---------0-----0--------5--------------------3---|
E|--3---------------------------------------------------3------------|


  Alternative open bridge.                      H
e|-----------0--------0---------5--3--------------------0---0--------|
B|--0--1--3-----1--4------------------5--------0--1--3-----------1---|
G|------------------------0-----------------2------------------------|
D|--------------2-------2-------2--------2--------------------0------|
A|-----0--2--3-----3--------0------0-----------------------------3---|
E|--3---------------------------------------2-----------3------------|

  I like to use the alternative open bridge to open the the cycle.  In
  Arlo's video he never seems to leave the first few frets which makes 
  singing and playing easier.  You can open with the alternative and 
  then end with the usual ending.  see my video on Youtube MrAlanCBrown.


e|-----------0--------0---------5--3--------------------0---------|
B|--0--1--3-----1--4------------------5-----3-----3--------3------|
G|------------------------0--------------------5------------------|
D|--------------2-------2-------2--------2--0--------4-----0------|
A|-----0--2--3-----3---------0-----0------------------------------|
E|--3---------------------------------------------5---------------|

e|-----------0--------0-------------------------------------------|
B|--0--1--3-----1--4--------1--0-----------------0--1--3----------|
G|-----------------------0-----------3--------2--------------2----|
D|--------------2------2----------2--------2--------------0-------|
A|-----0--2--3-----3--------3-----------3-------------------------|
E|--3-----------------------------------------1-----1-------------|
  
e|--------------------------0--------0---------5--3---------------|
B|--1--3--------1--3-----------1--4------------------5------------|
G|-----------2-----------2---------------0------------------------|
D|--------0-----------0--------2-------2-------2--------2---------|
A|--------------------------3-----3---------0-----0---------------|
E|--2-----------2-------------------------------------------------|

e|--------------0-------------------------------------------------|
B|--3--------0--------1-------------------------------------------|
G|--------0-------------------------------------------------------|
D|-----4-----------0----------------------------------------------|
A|--5-----------------3-------------------------------------------|
E|-----------3----------------------------------------------------|
                       Continue throughout.

Tap to rate this tab
# A B C D E F G H I J K L M N O P Q R S T U V W X Y Z