Arlo - Stab The Unstoppable Hero tab

jeffcooperlocalh@yahoo.com
ARLO
album: Stab the Unstoppable Hero
Song: Stab the Unstoppable Hero
tuning: standard
boners: aplenty






here is my first tab ever, for a song and band I love.

intro
----------------------------------------------|
----------------------------------------------|
----------------------------------------------|
------9-----9----9-----9-----9----9----9----9-|
----9-----9----9-----9-----9----9----9----9---|
--7-----6-----5----6-----7----6----5----6-----|


verse
-----------------------------------------------------|
-----------------------------------------------------|
-----------------------------------------------------|
--9-9-9-9-9---2-2--11-11-----------------------------|
--9-9-9-9-9---2-2--11-11-----------------------------|
--7-7-7-7-7---0-0--9--9------------------------------|

pre chorus
------------------------------------------------|
------------------------------------------------|
------------------------------------------------|
---7-7--8--9------------------------------------|
---7-7--8--9------------------------------------|
---5-5--6--7------------------------------------|



chorus
-----------------------------------------------------------|
-----------------------------------------------------------|
-9-9-9-9---6-6-6--8-8-8---9-9-9-9-9-9----------------------|
-9-9-9-9---6-6-6--8-8-8---9-9-9-9-9-9----------------------|
-7-7-7-7---4-4-4--6-6-6---7-7-7-7-7-7----------------------|
-----------------------------------------------------------|


and i think that sounds about right to me
Tap to rate this tab
 
# A B C D E F G H I J K L M N O P Q R S T U V W X Y Z