Song name
# A B C D E F G H I J K L M N O P Q R S T U V W X Y Z

Arma Gathas - The Rise And Fall tab

-------------------------------------------------------------------------------
			  The Rise And Fall - Arma Gathas
-------------------------------------------------------------------------------

ARTIST   : Arma Gathas
SONG     : The Rise And Fall
ALBUM    : Dead To This World
TABBED BY: h8urlife
TUNING   : B F# B E G# C# 





Intro:
                           
C#|----------------------------------------------------------------------|
G#|----------------------------------------------------------------------|
E |----------------------------------------------------------------------|
B |----------------------------------------------------------------------| 
F#|-1-0------1-0------1-0------1-0------1-0------1-0------3-3-3--1-3-1---|
B |-1-0-0000-1-0-0000-1-0-0000-1-0-0000-1-0-0000-1-0-0000-3-3-3--1-3-1---|
        ....     ....     ....     ....     ....     ....  

C#|----------------------------------------------------------------------|
G#|----------------------------------------------------------------------|
E |----------------------------------------------------------------------|
B |----------------------------------------------------------------------| 
F#|-1-0------1-0------1-0------1-0------1-0------1-0------3-3-3--1-3-1-0-|
B |-1-0-0000-1-0-0000-1-0-0000-1-0-0000-1-0-0000-1-0-0000-3-3-3--1-3-1-0-|
        ....     ....     ....     ....     ....     ....        . . .



Verse:

C#|----------------------------------------------------|
G#|----------------------------------------------------|
E |----------------------------------------------------|
B |----------------------------------------------------| 
F#|-----------------------------------------------1-3--|
B |-1p0-0000000000000000-1p0-1p0-0000000000000000-1-3--|
        ................         ................    

C#|----------------------------------------------------|
G#|----------------------------------------------------|
E |----------------------------------------------------|
B |----------------------------------------------------| 
F#|-----------------------------------------------4-1--|
B |-1p0-0000000000000000-1p0-1p0-0000000000000000-4-1--|
        ................         ................  





Before Chorus:

C#|--------------------------------------|
G#|--------------------------------------|
E |--------------------------------------|
B |-----------------10--8---10--8--------| 
F#|-0-------0-------8---6---8---6----1-3-|
B |-0--0000-0--0000---0---0---0---0--1-3-|
       ....    ....   .   .   .   .       



Chorus:

C#|--------------------------------|
G#|--------------------------------|
E |--------------------------------|
B |-7------8------10---------------| 
F#|-5------6------8------3-6-5-3-0-|
B |---0000---0000---0000-3-6-5-3-0-|
      ....   ....   ....             




Verse:

C#|----------------------------------------------------|
G#|----------------------------------------------------|
E |----------------------------------------------------|
B |----------------------------------------------------| 
F#|-----------------------------------------------1-3--|
B |-1p0-0000000000000000-1p0-1p0-0000000000000000-1-3--|
        ................         ................    

C#|----------------------------------------------------|
G#|----------------------------------------------------|
E |----------------------------------------------------|
B |----------------------------------------------------| 
F#|-----------------------------------------------4-1--|
B |-1p0-0000000000000000-1p0-1p0-0000000000000000-4-1--|
        ................         ................  





Before Chorus:

C#|--------------------------------------|
G#|--------------------------------------|
E |--------------------------------------|
B |-----------------10--8---10--8--------| 
F#|-0-------0-------8---6---8---6----1-3-|
B |-0--0000-0--0000---0---0---0---0--1-3-|
       ....    ....   .   .   .   .       




Chorus:

C#|--------------------------------|
G#|--------------------------------|
E |--------------------------------|
B |-7------8------10---------------| 
F#|-5------6------8------3-6-5-3-0-|
B |---0000---0000---0000-3-6-5-3-0-|
      ....   ....   ....  




Under Solo:

C#|------------------------------------------------|---------|
G#|------------------------------------------------|---------|
E |------------------------------------------------|---------|
B |------------------------------------------------|---------| 
F#|-0~---1~---3~-----0~---1~---3~-----0~---1~---3~-|-0-1-1-1-|
B |-0~---1~---3~-----0~---1~---3~-----0~---1~---3~-|-0-1-1-1-|
                                                     . . . .   




Before Chorus:

C#|--------------------------------------|
G#|--------------------------------------|
E |--------------------------------------|
B |-----------------10--8---10--8--------| 
F#|-0-------0-------8---6---8---6----1-3-|
B |-0--0000-0--0000---0---0---0---0--1-3-|
       ....    ....   .   .   .   .       




Chorus:

C#|-----------------------------------|---------|
G#|-----------------------------------|---------|
E |-----------------------------------|---------|
B |-----------------------------------|---------| 
F#|-0-------1-------3-------3-6-5-3-0-|-0-1-1-1-|
B |-0--0000-1--0000-3--0000-3-6-5-3-0-|-0-1-1-1-|
       ....    ....    ....             . . . . 



Arma Gathas rulez!!!

http://www.myspace.com/armagathas
Tap to rate this tab
 
# A B C D E F G H I J K L M N O P Q R S T U V W X Y Z