Guitaretab - guitar tabs
Song name
# A B C D E F G H I J K L M N O P Q R S T U V W X Y Z

Armada - Two Natious tab

E--12--12--12--12--12--12--10--10--10--10--10--10---9---9---9---9---9---9--8--8--8--8--8--8---|
A--12--12--12--12--12--12--10--10--10--10--10--10--11--11--11--11--11--11--10-10-10-10-10-10--|
D--14--14--14--14--14--14--12--12--12--12--12--12--11--11--11--11--11--11--10-10-10-10-10-10--| Repeat 5 times
G---------------------------------------------------------------------------------------------| then play whats below
B---------------------------------------------------------------------------------------------| Chorus
E---------------------------------------------------------------------------------------------|
[ Tab from: http://www.guitaretab.com/a/armada/36003.html ]
E--0--0--0--0--0--0--2--2--2--2--2--2--3--3--3--3--3--3--2--2--2--2--2--2--0--0--0--0--0--0]
A--2--2--2--2--2--2--3--3--3--3--3--3--4--4--4--4--4--4--3--3--3--3--3--3--2--2--2--2--2--2]
D--3--3--3--3--3--3--0--0--0--0--0--0--0--0--0--0--0--0--0--0--0--0--0--0--3--3--3--3--3--3] Repeat 5 times
G------------------------------------------------------------------------------------------] then play above 4 times
B------------------------------------------------------------------------------------------] Relay
E------------------------------------------------------------------------------------------]

Strumming Pattern is- Down Down Up Up Down Up

Play Chorus 5 times Then Play Relay 5 times
then play chourus 4 times then relay 4 times
so on and so forth on chorus and relay last time
slow down.  Then Play end (below)

E------------------|
A------------------|
D--2--2--2--2------|2]
G--2--2--2--2------|2]  [2]=Play Slow and a little louder.
B--2--2--2--3------|2]
E--0--2--3--2------|2]
   1  2  3  4
play 1, 2, 3, 4 each down, down, up, up, down, up

(c)2002 by Armada plese visit www.houseofguitar.5u.com
Related for Two Natious tab