Guitaretab - guitar tabs
Song name
# A B C D E F G H I J K L M N O P Q R S T U V W X Y Z

Armagedda - My Eternal Journey tab

ARMAGEDDA  MY ETERNAL JOURNEY
this is my first tab :)
Listen to the song for the timing.

Riff 1 (Guitar1)
E ----------------------------------------|
B ----------------------------------------|
G ----------------------------------------|
D ---333333333444777777777444-------------|
A ---333333333444777777777444-------------|
E ---111111111222555555555222-------------|

Riff 1(Guitar2)
E ----------------------------------------|
B ---1-------5-------1-------5----2-------|
G ----------------------------------------|
D ----------------------------------------|
A ----------------------------------------|
E ----------------------------------------|

Riff 2 (Guitar 1)
E ----------------------------------------|
B ----------------------------------------|
G ----------------------------------------|
D ---888888888444777777777777-------------|
A ---888888888444777777777777-------------|
E ---666666666222555555555555-------------|
^timing changes when guitar 2 comes in^
[ Tab from: http://www.guitaretab.com/a/armagedda/87037.html ]
Riff 2 (Guitar 2) speed picking
E ----------------------------------------|
B -----4-------3-------4-------2----------|
G ----------------------------------------|
D ----------------------------------------|
A ----------------------------------------|
E ----------------------------------------|

Riff 3 (Guitar 1)
E ----------------------------------------|
B ----------------------------------------|
G ------2----------6----------------------|
D ---3333-3334447777-777444---------------|
A ---3333-3334447777-777444---------------|
E ---1111-1112225555-555222---------------|

Riff 3 (Guitar2) speed picking
E ----------------------------------------|
B ---1-------5-------1-------5----2-------|
G ----------------------------------------|
D ----------------------------------------|
A ----------------------------------------|
E ----------------------------------------|

Riff 4
E ----------------------------------------|
B ----------------------------------------|
G -------------44---------------4444------|
D ---333333333344---3333333333334444------|
A ---333333333342---3333333333332222------|
E ---11111111122-----111111111111---------|

Ending
E ----------------------------------------|
B ----------------------------------------|
G ------2----------6----------------------|
D ---3333-3334447777-777444---------------|
A ---3333-3334447777-777444---------------|
E ---1111-1112225555-555222---------------|

I think this is right. Hail Armagedda