Song name
# A B C D E F G H I J K L M N O P Q R S T U V W X Y Z

Armageddon - The Juggernaut Divine tab

Help us improve GuitareTab! Take a short survey!
#----------------------------------PLEASE NOTE---------------------------------#
#This file is the author's own work and represents their interpretation of the #
#song. You may only use this file for private study, scholarship, or research. #
#------------------------------------------------------------------------------#

THE JUGGERNAUT DIVINE
As recorded by Armageddon 
(From the 1997 Album CROSSING THE RUBICON)


Transcribed by The Foreverlorn

 

 

Gtr I (E A D G B E) - 'Untitled'
Gtr II (E A D G B E) - 'Untitled'
Gtr III (E A D G B E) - 'Untitled'


   Intro
    Q=115
    E5
   12/8
    Gtrs I, II
    PM---------------------------------------
    E S S S S E S S S S E S S S S E S S S S
||------------------------------------------|
||o-----------------------------------------|
||------------------------------------------|
||------------------------------------------|
||o-2-2-2-2-2-2-2-2-2-2-2-2-2-2-2-2-2-2-2-2-|
||--0-0-0-0-0-0-0-0-0-0-0-0-0-0-0-0-0-0-0-0-|


  C5
 ---------------------------------------|
  E S S S S E S S S S E S S S S E S S S S
|-----------------------------------------|
|-----------------------------------------|
|-----------------------------------------|
|-5-5-5-5-5-5-5-5-5-5-5-5-5-5-5-5-5-5-5-5-|
|-3-3-3-3-3-3-3-3-3-3-3-3-3-3-3-3-3-3-3-3-|
|-----------------------------------------|


  C#5
  PM---------------------------------------
  E S S S S E S S S S E S S S S E S S S S
|-----------------------------------------|
|-----------------------------------------|
|-----------------------------------------|
|-6-6-6-6-6-6-6-6-6-6-6-6-6-6-6-6-6-6-6-6-|
|-4-4-4-4-4-4-4-4-4-4-4-4-4-4-4-4-4-4-4-4-|
|-----------------------------------------|


  C5
 ---------------------------------------|
  E S S S S E S S S S E S S S S E S S S S
|------------------------------------------||
|-----------------------------------------o||
|------------------------------------------||
|-5-5-5-5-5-5-5-5-5-5-5-5-5-5-5-5-5-5-5-5--||
|-3-3-3-3-3-3-3-3-3-3-3-3-3-3-3-3-3-3-3-3-o||
|------------------------------------------||


    $
    $$
    E5
    Gtr III
                       ~~~                           ~~~
     S  S  S  S  S  S  Q.          S  S  S  S  S  S  Q.
||--19p15-------------------------------------------------------|
||o-------17----------------------------------------------------|
||-----------16-------------------------------------------------|
||--------------17p14-------------------------------------------|
||o-------------------14----------14h15----14-------------------|
||--------------------------------------12----15-14-12----------|
|
|   Gtrs I, II
|    PM----------------------------------------------------------
|    E     S  S  S  S  E  S S S S  E     S  S  S  S  E  S S S S
||--------------------------------------------------------------|
||o-------------------------------------------------------------|
||--------------------------------------------------------------|
||--------------------------------------------------------------|
||o--2-----2--2--2--2--2--2-2-2-2--2-----2--2--2--2--2--2-2-2-2-|
||---0-----0--0--0--0--0--0-0-0-0--0-----0--0--0--0--0--0-0-0-0-|


  C5
                     ~~~                           ~~~
   S  S  S  S  S  S  Q.          S  S  S  S  S  S  Q.
|-20p15--------------------------------------------------------|
|-------17-----------------------------------------------------|
|----------17--------------------------------------------------|
|-------------17p14--------------------------------------------|
|-------------------15----------14h15----15-14-12-15-----------|
|-------------------------------------12-----------------------|
|
|-----------------------------------------------------------|
|  E     S  S  S  S  E  S S S S  E     S  S  S  S  E  S S S S
|--------------------------------------------------------------|
|--------------------------------------------------------------|
|--------------------------------------------------------------|
|--5-----5--5--5--5--5--5-5-5-5--5-----5--5--5--5--5--5-5-5-5--|
|--3-----3--3--3--3--3--3-3-3-3--3-----3--3--3--3--3--3-3-3-3--|
|--------------------------------------------------------------|


  C#5
                     ~~~                         ~~
   S  S  S  S  S  S  Q.          S  S S  S  S  S Q.
|-21p16-----------------------------------------------------|
|-------17--------------------------------------------------|
|----------18-----------------------------------------------|
|-------------18-14-----------------------------------------|
|-------------------16-------------16-----------------------|
|-------------------------------16----x-12-11-12-9----------|
|
|  PM--------------------------------------------------------
|  E     S  S  S  S  E  S S S S  E    S  S  S  S E  S S S S
|-----------------------------------------------------------|
|-----------------------------------------------------------|
|-----------------------------------------------------------|
|--6-----6--6--6--6--6--6-6-6-6--6----6--6--6--6-6--6-6-6-6-|
|--4-----4--4--4--4--4--4-4-4-4--4----4--4--4--4-4--4-4-4-4-|
|-----------------------------------------------------------|


                                                       To Coda
  C5
                     ~~~                           ~~~
   S  S  S  S  S  S  Q.          S  S  S  S  S  S  Q.
|-20p15----------------------------------------------------------||
|-------17------------------------------------------------------o||
|----------17----------------------------------------------------||
|-------------17p14----------------------------------------------||
|-------------------15----------14h15----15-14-12-15------------o||
|-------------------------------------12-------------------------||
|
|-----------------------------------------------------------|
|  E     S  S  S  S  E  S S S S  E     S  S  S  S  E  S S S S
|----------------------------------------------------------------||
|---------------------------------------------------------------o||
|----------------------------------------------------------------||
|--5-----5--5--5--5--5--5-5-5-5--5-----5--5--5--5--5--5-5-5-5----||
|--3-----3--3--3--3--3--3-3-3-3--3-----3--3--3--3--3--3-3-3-3---o||
|----------------------------------------------------------------||


   Verse
    Q=150
    E5                                  C5
   4/4
    Gtr I
        PM|                                   PM|
    E E S S  E       +S   +S   E E  E    E  E S S  E       +S   +S   E E  E
||------------------------------------|-------------------------------------|
||o-----------------------------------|-------------------------------------|
||------------------------------------|-------------------------------------|
||--2-2-------------------------------|-10-10-------------------------------|
||o-2-2-----10b11.5-(10)-(10)-10-9-10-|-10-10-----10b11.5-(10)-(10)-10-9-10-|
||--0-0-0-0---------------------------|--8--8-8-8---------------------------|
|
|   Gtr II
|       PM|                                   PM|
|   E E S S  E       +H                  E  E S S  E       +H
||------------------------------------|-------------------------------------|
||o-----------------------------------|-------------------------------------|
||------------------------------------|-------------------------------------|
||--2-2------2-------(2)--------------|-10-10-----10------(10)--------------|
||o-2-2------2-------(2)--------------|-10-10-----10------(10)--------------|
||--0-0-0-0--0-------(0)--------------|--8--8-8-8--8-------(8)--------------|


  A5                                  D5
      PM|                                    PM|
  E E S S  E       +S   +S   E E  E    E  E  S  S  E     +S  +S  E E E
|-----------------------------------|------------------------------------||
|-----------------------------------|-----------------------------------o||
|-----------------------------------|------------------------------------||
|-7-7-------------------------------|-12-12------------------------------||
|-7-7-----10b11.5-(10)-(10)-10-9-10-|-12-12--------9b10--(9)-(9)-9-7-9--o||
|-5-5-5-5---------------------------|-10-10-10-10------------------------||
|
|     PM|                                    PM|
| E E S S  E       +H                  E  E  S  S  E     +H
|-----------------------------------|------------------------------------||
|-----------------------------------|-----------------------------------o||
|-----------------------------------|------------------------------------||
|-7-7------7-------(7)--------------|-12-12-------12----(12)-------------||
|-7-7------7-------(7)--------------|-12-12-------12----(12)------------o||
|-5-5-5-5--5-------(5)--------------|-10-10-10-10-10----(10)-------------||


    E5
        PM|
    E E S S  E         +S   +S   E   E    E
||--------------------------------------------|
||o-------------------------------------------|
||--------------------------------------------|
||--2-2---------------------------------------|
||o-2-2-----10b11.5---(10)-(10)-10---9---10---|
||--0-0-0-0-----------------------------------|
|
|       PM-------------------------------------
|   E E S S  S      S   S    S   S S S S  S S
||--------------------------------------------|
||o-------------------------------------------|
||--------------------------------------------|
||--2-2---------------------------------------|
||o-2-2---------------------------------------|
||--0-0-0-0--0------0---0----0---0-0-0-0--0-0-|


  C5
            PM|
   E    E   S S  E         +S   +S   E   E    E
|--------------------------------------------------|
|--------------------------------------------------|
|--------------------------------------------------|
|-10---10------------------------------------------|
|-10---10-------10b11.5---(10)-(10)-10---9---10----|
|--8----8---8-8------------------------------------|
|
|-----------------------------------------------|
|  S S  S S S S  S      S   S    S   S S S S  S S
|--------------------------------------------------|
|--------------------------------------------------|
|--------------------------------------------------|
|--------------------------------------------------|
|--------------------------------------------------|
|--8-8--8-8-8-8--8------8---8----8---8-8-8-8--8-8--|


  A5
          PM|
  E   E   S S  E         +S   +S   E   E    E
|-----------------------------------------------|
|-----------------------------------------------|
|-----------------------------------------------|
|-7---7-----------------------------------------|
|-7---7-------10b11.5---(10)-(10)-10---9---10---|
|-5---5---5-5-----------------------------------|
|
| PM------------------------------------------|
| S S S S S S  S      S   S    S   S S S S  S S
|-----------------------------------------------|
|-----------------------------------------------|
|-----------------------------------------------|
|-----------------------------------------------|
|-----------------------------------------------|
|-5-5-5-5-5-5--5------5---5----5---5-5-5-5--5-5-|


  D5
         PM|
   E  E  S  S  E       +S  +S   E     E     E
|-------------------------------------------------||
|------------------------------------------------o||
|-------------------------------------------------||
|-12-12-------------------------------------------||
|-12-12--------9b10----(9)-(9)--9-----7-----9----o||
|-10-10-10-10-------------------------------------||
|
|        PM-----------------------------------|
|  E  E  S  S  S     S  S   S   S  S  S  S  S  S
|-------------------------------------------------||
|------------------------------------------------o||
|-------------------------------------------------||
|-12-12-------------------------------------------||
|-12-12------------------------------------------o||
|-10-10-10-10-10----10-10--10--10-10-10-10-10-10--||


 Bridge
  Q=90
  E5N.C.              E5          N.C.
  Gtrs I, II
    ~ PM  PM  PM|                 ~ PM  PM  PM|
  E S S S S E S S S S E S S   +E  S S S S E S S S S S S S  S
|---------------------------|---------------------------------|
|---------------------------|---------------------------------|
|---------------------------|---------------------------------|
|-2---------------7s9-2-1-2-|-(2)---------------7s9-----9s12--|
|-2-7---7-------6-----2-1-2-|-(2)-7---7-------6-------6-------|
|-0---8---8-5-5-----------0-|-(0)---8---8-5-5-------7---------|


  E5N.C.              E5          N.C.
                             6/8
    ~ PM  PM  PM|                 ~ PM  PM
  E S S S S E S S S S E S S   +E  S S S S E  S  S  S  S
|---------------------------|---------------------------|
|---------------------------|---------------------------|
|---------------------------|---------------------------|
|-2---------------7s9-2-1-2-|-(2)-----------10s13-13s16-|
|-2-7---7-------6-----2-1-2-|-(2)-7---7-----------------|
|-0---8---8-5-5-----------0-|-(0)---8---8-5--8s11-11s14-|


   Chorus
    Q=150
    E5
   4/4
    Gtr III
     T      T      T        T              T            T        T        T
     |-3-|  |-3-|  |--3--|  |----3-----|   |----3----|  |--3--|  |--3--|  |--3--|
     S S S  S S S  S S   S  S      S   S   S  S      S  S S   S  S S   S  S S   S
||---------------------------------------------------------------------------------|
||o-12p8p5-12p8p5-12p8p==5-12p=====8p==5--12p=8p=====5-12p8p==5-12p8p==5-12p8p==5--|
||---------------------------------------------------------------------------------|
||---------------------------------------------------------------------------------|
||o--------------------------------------------------------------------------------|
||---------------------------------------------------------------------------------|
|
|   Gtr I
|                  PM--|
|    E      E      S   S    E             +S     +S     E        E        E
||---------------------------------------------------------------------------------|
||o--------------------------------------------------------------------------------|
||---------------------------------------------------------------------------------|
||---2------2----------------------------------------------------------------------|
||o--2------2--------------10b11.5-------(10)---(10)---10--------9-------10--------|
||---0------0------0---0-----------------------------------------------------------|
|
|   Gtr II
|                  PM---------------------------------------------------------|
|    E      E      S   S    S        S     S      S     S   S    S   S    S   S
||---------------------------------------------------------------------------------|
||o--------------------------------------------------------------------------------|
||---------------------------------------------------------------------------------|
||---2------2----------------------------------------------------------------------|
||o--2------2----------------------------------------------------------------------|
||---0------0------0---0----0--------0-----0------0-----0---0----0---0----0---0----|


  C5
   T        T        T        T              T            T        T        T
   |--3--|  |--3--|  |--3--|  |----3-----|   |----3----|  |--3--|  |--3--|  |--3--|
   S S   S  S S   S  S S   S  S      S   S   S  S      S  S S   S  S S   S  S S   S
|------------------------------------------------------------------------------------|
|-13p8p==5-13p8p==5-13p8p==5-13p=====8p==5--13p=8p=====5-13p8p==5-13p8p==5-13p8p==5--|
|------------------------------------------------------------------------------------|
|------------------------------------------------------------------------------------|
|------------------------------------------------------------------------------------|
|------------------------------------------------------------------------------------|
|
|                    PM--|
|  E        E        S   S    E             +S     +S     E        E        E
|------------------------------------------------------------------------------------|
|------------------------------------------------------------------------------------|
|------------------------------------------------------------------------------------|
|-10-------10------------------------------------------------------------------------|
|-10-------10----------------10b11.5-------(10)---(10)---10--------9-------10--------|
|--8--------8--------8---8-----------------------------------------------------------|
|
|  PM---------------------------------------------------------------------------|
|  S   S    S   S    S   S    S        S     S      S     S   S    S   S    S   S
|------------------------------------------------------------------------------------|
|------------------------------------------------------------------------------------|
|------------------------------------------------------------------------------------|
|------------------------------------------------------------------------------------|
|------------------------------------------------------------------------------------|
|--8---8----8---8----8---8----8--------8-----8------8-----8---8----8---8----8---8----|


  A5
   T        T        T        T              T            T        T        T
   |--3--|  |--3--|  |--3--|  |----3-----|   |----3----|  |--3--|  |--3--|  |--3--|
   S S   S  S S   S  S S   S  S      S   S   S  S      S  S S   S  S S   S  S S   S
|------------------------------------------------------------------------------------|
|-14p8p==5-14p8p==5-14p8p==5-14p=====8p==5--14p=8p=====5-14p8p==5-14p8p==5-14p8p==5--|
|------------------------------------------------------------------------------------|
|------------------------------------------------------------------------------------|
|------------------------------------------------------------------------------------|
|------------------------------------------------------------------------------------|
|
|                    PM--|
|  E        E        S   S    E             +S     +S     E        E        E
|------------------------------------------------------------------------------------|
|------------------------------------------------------------------------------------|
|------------------------------------------------------------------------------------|
|--7--------7------------------------------------------------------------------------|
|--7--------7----------------10b11.5-------(10)---(10)---10--------9-------10--------|
|--5--------5--------5---5-----------------------------------------------------------|
|
|  PM---------------------------------------------------------------------------|
|  S   S    S   S    S   S    S        S     S      S     S   S    S   S    S   S
|------------------------------------------------------------------------------------|
|------------------------------------------------------------------------------------|
|------------------------------------------------------------------------------------|
|------------------------------------------------------------------------------------|
|------------------------------------------------------------------------------------|
|--5---5----5---5----5---5----5--------5-----5------5-----5---5----5---5----5---5----|


                                                                                   D.S.
                                                                                   D.S.
  D5
   T       T       T          T             T            T          T          T
   |-3--|  |-3--|  |---3---|  |----3-----|  |----3----|  |---3---|  |---3---|  |---3---|
   S  S S  S  S S  S  S    S  S     S    S  S   S     S  S  S    S  S  S    S  S  S    S
|-----------------------------------------------------------------------------------------||
|-15p10p7-15p10p7-15p10p===7-15p===10p===7-15p=10p====7-15p10p===7-15p10p===7-15p10p===7-o||
|-----------------------------------------------------------------------------------------||
|-----------------------------------------------------------------------------------------||
|----------------------------------------------------------------------------------------o||
|-----------------------------------------------------------------------------------------||
|
|                  PM---|
|  E       E       S     S    E            +S     +S     E          E          E
|-----------------------------------------------------------------------------------------||
|----------------------------------------------------------------------------------------o||
|-----------------------------------------------------------------------------------------||
|-12------12------------------------------------------------------------------------------||
|-12------12------------------9b10---------(9)----(9)----9----------7----------9---------o||
|-10------10------10----10----------------------------------------------------------------||
|
|                  PM---------------------------------------------------------------|
|  E       E       S     S    S        S    S      S     S     S    S     S    S     S
|-----------------------------------------------------------------------------------------||
|----------------------------------------------------------------------------------------o||
|-----------------------------------------------------------------------------------------||
|-12------12------------------------------------------------------------------------------||
|-12------12-----------------------------------------------------------------------------o||
|-10------10------10----10---10-------10---10-----10----10----10---10----10---10----10----||


 Interlude
  Q=160
  &
  E5 F5   E5  Bb5/F A5/EC5   F5    E5        F5   E5  Bb5/F A5/EC5   F5
        PM  PM  PM         PM    PM        PM   PM  PM  PM         PM    PM ~~~
  Q   E E E E E E   E E  E E E E E E   +E  E  E E E E E E   E E  E E E E E  E
|-----------------|------------------|--------------------|--------------------|
|-----------------|------------------|--------------------|--------------------|
|-----------------|------------------|--------------------|--------------------|
|-2--10---9---8---|-7--------------2-|-(2)---10---9---8---|-7------------------|
|-2---8---7---8---|-7---10---3-3---2-|-(2)----8---7---8---|-7---10---3-3---[7]-|
|-0-----0---0---0-|---0--8-0-1-1-0-0-|-(0)-0----0---0---0-|---0--8-0-1-1-0-----|
|
|       PM  PM  PM         PM    PM        PM   PM  PM  PM         PM    PM ~~~
| Q   E E E E E E   E E  E E E E E E   +E  E  E E E E E E   E E  E E E E E  E
|-----------------|------------------|--------------------|--------------------|
|-----------------|------------------|--------------------|--------------------|
|-----------------|------------------|--------------------|--------------------|
|-2--10---9---8---|-7--------------2-|-(2)---10---9---8---|-7------------------|
|-2---8---7---8---|-7---10---3-3---2-|-(2)----8---7---8---|-7---10---3-3---[7]-|
|-0-----0---0---0-|---0--8-0-1-1-0-0-|-(0)-0----0---0---0-|---0--8-0-1-1-0-----|


  N.C.     F5   E5  Bb5/F A5/EC5   F5    E5
   ~~~        PM  PM  PM         PM    PM
  +E  +E    E E E E E E   E E  E E E E E E
|-----------------------|------------------|
|-----------------------|------------------|
|-----------------------|------------------|
|----------10---9---8---|-7--------------2-|
|-(7)-(7)\--8---7---8---|-7---10---3-3---2-|
|-------------0---0---0-|---0--8-0-1-1-0-0-|
|
|  ~~~        PM  PM  PM         PM    PM
| +E  +E    E E E E E E   E E  E E E E E E
|-----------------------|------------------|
|-----------------------|------------------|
|-----------------------|------------------|
|----------10---9---8---|-7--------------2-|
|-(7)-(7)\--8---7---8---|-7---10---3-3---2-|
|-------------0---0---0-|---0--8-0-1-1-0-0-|


        F5   E5  Bb5/F A5/EC5   F5    E5
      PM   PM  PM  PM         PM    PM
  +E  E  E E E E E E   E E  E E E E E  E
|--------------------|--------------------|
|--------------------|--------------------|
|--------------------|--------------------|
|-(2)---10---9---8---|-7---------------2--|
|-(2)----8---7---8---|-7---10---3-3---[2]-|
|-(0)-0----0---0---0-|---0--8-0-1-1-0--0--|
|
|     PM   PM  PM  PM         PM    PM
| +E  E  E E E E E E   E E  E E E E E  E
|--------------------|--------------------|
|--------------------|--------------------|
|--------------------|--------------------|
|-(2)---10---9---8---|-7---------------2--|
|-(2)----8---7---8---|-7---10---3-3---[2]-|
|-(0)-0----0---0---0-|---0--8-0-1-1-0--0--|


  E5    F5   E5  Bb5/F A5/EC5   F5    E5
  Gtr III
   W                   W
|--------------------|------------------|
|--------------------|------------------|
|--------------------|------------------|
|--------------------|------------------|
|--------------------|------------------|
|--------------------|------------------|
|
| Gtrs I, II
|     PM   PM  PM  PM         PM    PM
| +E  E  E E E E E E   E E  E E E E E E
|--------------------|------------------|
|--------------------|------------------|
|--------------------|------------------|
|-(2)---10---9---8---|-7--------------2-|
|-(2)----8---7---8---|-7---10---3-3---2-|
|-(0)-0----0---0---0-|---0--8-0-1-1-0-0-|


        F5   E5  Bb5/F A5/E  C5   F5    E5
   W                   H..               E
|--------------------|------------------19-|
|--------------------|---------------------|
|--------------------|---------------------|
|--------------------|---------------------|
|--------------------|---------------------|
|--------------------|---------------------|
|
|     PM   PM  PM  PM           PM    PM
| +E  E  E E E E E E   E   E  E E E E E  E
|--------------------|---------------------|
|--------------------|---------------------|
|--------------------|---------------------|
|-(2)---10---9---8---|-7-----------------2-|
|-(2)----8---7---8---|-7-----10---3-3----2-|
|-(0)-0----0---0---0-|-----0--8-0-1-1-0--0-|


 Guitar Solo
  E5                        F5                      E5                      Bb5/F
  Gtr III
   +T   T  T  T  T  T  T  T  T  T  T  T  T  T  T  T  T  T  T  T  T  T  T  T  T  T  T  T  T  T  T  T
|-(19)-17-15----15-------------------------------------------------------------------------------|
|------------19----19-17-15-17-15----------------------------------------------------------------|
|---------------------------------18-16-18-16-14----14-------------------------------------------|
|------------------------------------------------17----17-16-14-16-14----------------------------|
|---------------------------------------------------------------------17-16-17-16-14----14-------|
|------------------------------------------------------------------------------------17--17-15-14|
|
| Gtrs I, II
|                PM                      PM                      PM                      PM
|   E            E           E           E           E           E           E           E
|------------------------------------------------------------------------------------------------|
|------------------------------------------------------------------------------------------------|
|------------------------------------------------------------------------------------------------|
|---2-----------------------10-----------------------9-----------------------8-------------------|
|---2------------------------8-----------------------7-----------------------8-------------------|
|---0------------0-----------------------0-----------------------0-----------------------0-------|


  A5/E   C5      F5                   E5
               <
   Q..         S  S  S  S  a  S  S  S  S  S
|----------------------12-15p12----------12-|
|-------------15-12-15----------15-12-15----|
|-------------------------------------------|
|-------------------------------------------|
|-------------------------------------------|
|-12----------------------------------------|
|
|           PM                   PM
|  E   E  E E     E     E        E     E
|-------------------------------------------|
|-------------------------------------------|
|-------------------------------------------|
|--7-----------------------------------2----|
|--7-----10-------3-----3--------------2----|
|------0--8-0-----1-----1--------0-----0----|


     E5          F5             E5             Bb5/F
   a  S  S  S  S  S  a  S  S  S  S  S  a  S  S  S  S  S  a  S
|-15p12----------12-17p12----------12-17p12----------12-15p12-|
|-------15-12-15----------15-12-15----------15-12-15----------|
|-------------------------------------------------------------|
|-------------------------------------------------------------|
|-------------------------------------------------------------|
|-------------------------------------------------------------|
|
|           PM             PM             PM          PM
|     E     E     E        E     E        E     E     E
|-------------------------------------------------------------|
|-------------------------------------------------------------|
|-------------------------------------------------------------|
|-----2----------10--------------9--------------8-------------|
|-----2-----------8--------------7--------------8-------------|
|-----0-----0--------------0--------------0-----------0-------|


  A5/E           C5          F5                      E5
   S  S  S  S  a  S  S  S  S  S  a  S  S  S  S  S  a  S  S
|----------14-17p14----------15-18p15----------15-19p15-----|
|-15-14-16----------15-14-16----------17-15-17----------17--|
|-----------------------------------------------------------|
|-----------------------------------------------------------|
|-----------------------------------------------------------|
|-----------------------------------------------------------|
|
|                       PM                   PM
|  E     E        E     E     E        E     E        E
|-----------------------------------------------------------|
|-----------------------------------------------------------|
|-----------------------------------------------------------|
|--7--------------------------------------------------2-----|
|--7-------------10-----------3--------3--------------2-----|
|--------0--------8-----0-----1--------1-----0--------0-----|


  E5             F5             E5             Bb5/F
   S  S  S  a  S  S  S  S  S  a  S  S  +E       +E   +E
|-------15-20p15----------15-19p15-----------------------|
|-15-17----------17-15-17----------17-(17)b20==(17)-(17)r|
|--------------------------------------------------------|
|--------------------------------------------------------|
|--------------------------------------------------------|
|--------------------------------------------------------|
|
|        PM             PM              PM            PM
|  E     E        E     E        E      E        E    E
|--------------------------------------------------------|
|--------------------------------------------------------|
|--------------------------------------------------------|
|--2-------------10--------------9---------------8-------|
|--2--------------8--------------7---------------8-------|
|--0-----0--------------0---------------0-------------0--|


  A5/E          C5        F5     E5
                           ~~
   +E       +E   +E   +E   H
|----------------------------------|
|-(17)b20==(17)-(17)r(17)-17-------|
|-------------------------16-------|
|----------------------------------|
|----------------------------------|
|----------------------------------|
|
|                      PM      PM
|   E        E    E    E   E E E E
|----------------------------------|
|----------------------------------|
|----------------------------------|
|---7----------------------------2-|
|---7------------10--------3-3---2-|
|------------0----8----0---1-1-0-0-|


  E5          F5          E5          Bb5/F
   S  S  S  S  S  S  S  S  S  S  S  S  S  S  S  S
|-------------------------------------------12-15s|
|----------------12-17p12----------------12-------|
|-------------12----------12----------12----------|
|----------14----------------14----14-------------|
|-------14----------------------14----------------|
|-12-15-------------------------------------------|
|
|        PM          PM          PM          PM
|  E     E     E     E     E     E     E     E
|-------------------------------------------------|
|-------------------------------------------------|
|-------------------------------------------------|
|--2----------10-----------9-----------8----------|
|--2-----------8-----------7-----------8----------|
|--0-----0-----------0-----------0-----------0----|


  A5/E        C5          F5                E5
   S  S  S  S  S  S  S  S  S  S  S  S  S  S  E
|-16-15-12----------------------------15-12-19--|
|----------12-------------------12-16-----------|
|-------------12-------------12-----------------|
|----------------14-------14--------------------|
|----------------------14-----------------------|
|-------------------15--------------------------|
|
|                    PM                PM
|  E     E     E     E     E     E     E     E
|-----------------------------------------------|
|-----------------------------------------------|
|-----------------------------------------------|
|--7-----------------------------------------2--|
|--7----------10-----------3-----3-----------2--|
|--------0-----8-----0-----1-----1-----0-----0--|


  E5           F5          E5          Bb5/F         A5/E  C5   F5       N.C.
  Gtr III
                                                            ~~~~~~~~~~~~~
    |---3----|
   +E   E    E  S  S  S  S  S  S  S  S  S  S  S  S    E  E  H        +E   E
|-(19)-19---19-17-19-17-15-------------------------|------------------------|
|--------------------------19-17-15----------------|------------------------|
|-----------------------------------16-14-16-14-12-|----14-12-------(12)----|
|--------------------------------------------------|-14---------------------|
|--------------------------------------------------|------------------------|
|--------------------------------------------------|------------------------|
|
| Gtr I
|         PM          PM          PM          PM              PM      PM
|   E     E     E     E     E     E     E     E       E  E  E E E E   E   E
|--------------------------------------------------|------------------------|
|--------------------------------------------------|---------------------19-|
|--------------------------------------------------|------------------------|
|---2----------10-----------9-----------8----------|--7---------------------|
|---2-----------8-----------7-----------8----------|--7----10---3-3---------|
|---0-----0-----------0-----------0-----------0----|-----0--8-0-1-1---0-----|
|
| Gtr II
|         PM          PM          PM          PM              PM      PM
|   E     E     E     E     E     E     E     E       E  E  E E E E   E   E
|--------------------------------------------------|------------------------|
|--------------------------------------------------|---------------------15-|
|--------------------------------------------------|------------------------|
|---2----------10-----------9-----------8----------|--7---------------------|
|---2-----------8-----------7-----------8----------|--7----10---3-3---------|
|---0-----0-----------0-----------0-----------0----|-----0--8-0-1-1---0-----|


 Harmony Part
  E5     D/F#        G5     C5                  D5  C5  D5   E5
  Gtr I
   ~~     ~~          ~~     ~~          ~~~                  ~~~
   Q   E  H     E     Q   E  H     E     Q    E  Q   Q   E    H.       Q
|-----22-20--------|-----20-19--------|------19-17--19--20-|-22-----------|
|-20-----------17--|-19-----------15--|-17-----------------|----------19--|
|------------------|------------------|--------------------|--------------|
|------------------|------------------|--------------------|--------------|
|------------------|------------------|--------------------|--------------|
|------------------|------------------|--------------------|--------------|
|
| Gtr II
|  ~~     ~~          ~~     ~~          ~~~                  ~~~
|  Q   E  H     E     Q   E  H     E     Q    E  Q   Q   E    H.       Q
|-----19-17--------|-----17-15--------|------15-14--15--17-|-19-----------|
|-17-----------13--|-15-----------12--|-13-----------------|----------15--|
|------------------|------------------|--------------------|--------------|
|------------------|------------------|--------------------|--------------|
|------------------|------------------|--------------------|--------------|
|------------------|------------------|--------------------|--------------|
|
| Gtr III
|  q   E  H    +E     q   E  H    +E     Q.      Q   Q   E    W
|------------------|------------------|--------------------|--------------|
|------------------|------------------|--------------------|--------------|
|------------------|---------5----(5)-|--5-------7---5---7-|--------------|
|--2------4----(4)-|--5------5----(5)-|--5-------7---5---7-|--2-----------|
|--2------5----(5)-|--5------3----(3)-|--3-------5---3---5-|--2-----------|
|--0------2----(2)-|--3---------------|--------------------|--0-----------|


  E5     D/F#           G5     C5                  D5  C5          D5   E5
  Gtr I
   ~~     ~~~            ~~     ~~          ~~~                          ~~
                                                        |--3--|
   Q   E  Q.    E  E     Q   E  H     E     Q    E  Q   S  S  S  E  E    W
|-----22-20----19-20--|-22-----------17--|-19---17-19--17h19p17-------|-------|
|-20------------------|-----19-20--------|----------------------20-19-|-20----|
|---------------------|------------------|----------------------------|-------|
|---------------------|------------------|----------------------------|-------|
|---------------------|------------------|----------------------------|-------|
|---------------------|------------------|----------------------------|-------|
|
| Gtr II
|  ~~     ~~~            ~~     ~~          ~~~                          ~~
|                                                       |--3--|
|  Q   E  Q.    E  E     Q   E  H     E     Q    E  Q   S  S  S  E  E    W
|-----19-17-----------|------------------|----------------------------|-------|
|-17-----------15-17--|-19--15-17----19--|-20---19-20--19h20p19-17----|-17----|
|---------------------|------------------|-------------------------19-|-------|
|---------------------|------------------|----------------------------|-------|
|---------------------|------------------|----------------------------|-------|
|---------------------|------------------|----------------------------|-------|
|
| Gtr III
|  q   E  H       +E     q   E  H    +E     Q.      Q   Q           E    W
|---------------------|------------------|----------------------------|-------|
|---------------------|------------------|----------------------------|-------|
|---------------------|---------5----(5)-|--5-------7---5-----------7-|-------|
|--2------4-------(4)-|--5------5----(5)-|--5-------7---5-----------7-|--2----|
|--2------5-------(5)-|--5------3----(3)-|--3-------5---3-----------5-|--2----|
|--0------2-------(2)-|--3---------------|----------------------------|--0----|


 Guitar Solo 2/Outro
  E5                D/F#                              G5          C5
  Gtr III
                                                                       ~~~~~~~~~~
   E       +E   +E   E       +S   +S   E  E  +E        E     E  E  E  +H
|-15b16.5-(15)-(15)---------------------------------|---------------------------|
|-------------------15pb17==(15)r(15)-12-15-(15)b17-|---------------------------|
|---------------------------------------------------|-12b14-12-14-12-(12)-------|
|---------------------------------------------------|---------------------------|
|---------------------------------------------------|---------------------------|
|---------------------------------------------------|---------------------------|
|
| Gtrs I, II
|  Q.                H                       +E        Q.          H        +E
|---------------------------------------------------|---------------------------|
|---------------------------------------------------|---------------------------|
|---------------------------------------------------|--------------5--------(5)-|
|--2-----------------4-----------------------(4)----|--5-----------5--------(5)-|
|--2-----------------5-----------------------(5)----|--5-----------3--------(3)-|
|--0-----------------2-----------------------(2)----|--3------------------------|


                D5        C5       D5     E5
 ~~~~~~                                          ~~~
                     |--3---|  |--3---|
   +E   E  S  S S  S E  E   E  E E    E    E  E  H.
|---------------------------------------|--------------|
|---------------------------------------|--------------|
|-(12)-11-12-11-9-11-9------------------|--------------|
|----------------------12---9-12-9------|--------------|
|------------------------------------13-|-12-11-10-----|
|---------------------------------------|--------------|
|
|   Q.          Q         Q        E       W
|---------------------------------------|--------------|
|---------------------------------------|--------------|
|---5-----------7---------5--------7----|--------------|
|---5-----------7---------5--------7----|--2-----------|
|---3-----------5---------3--------5----|--2-----------|
|---------------------------------------|--0-----------|


  E5          D/F#                      G5           C5
         |---3---| |-3--|  |---3----|   |--3--|  |--3---|  |--3--|  |----3----|
   +Q    E  E    E E  E E  E E      E   E   E E  E E    E  E  E  E  E  E      E
|-------------------------------------|-----------------------------------------|
|-------------------------------------|-------------------10----10-12-10-----12-|
|-------------------------------------|-9-----9-12-9---12----12-----------------|
|------------------9----9-12-9-----12-|----12-----------------------------------|
|-(10)--12-10---12---12---------------|-----------------------------------------|
|-------------------------------------|-----------------------------------------|
|
|   Q.        H                +E       Q.           H                   +E
|-------------------------------------|-----------------------------------------|
|-------------------------------------|-----------------------------------------|
|-------------------------------------|--------------5-------------------(5)----|
|---2---------4----------------(4)----|-5------------5-------------------(5)----|
|---2---------5----------------(5)----|-5------------3-------------------(3)----|
|---0---------2----------------(2)----|-3---------------------------------------|


                  D5       C5    D5         E5
          ~~~~~~~~                                                ~~~~
                  |-3-|           |--3--|
   E     +E   +E  S S S  E  E  E  S  S  S    E  S  S  E     +E   +H
|-----------------------12-14-15-14h15p14-|-12----12--------------------|
|-15b17-(15)-(15)-----x-------------------|----15----15b17-(15)-(15)----|
|-------------------x---------------------|-----------------------------|
|-----------------x-----------------------|-----------------------------|
|-----------------------------------------|-----------------------------|
|-----------------------------------------|-----------------------------|
|
|  Q.             Q         Q     E          W
|-----------------------------------------|-----------------------------|
|-----------------------------------------|-----------------------------|
|--5--------------7---------5-----7-------|-----------------------------|
|--5--------------7---------5-----7-------|--2--------------------------|
|--3--------------5---------3-----5-------|--2--------------------------|
|-----------------------------------------|--0--------------------------|


  E5           D/F#                        G5           C5
     T       T       T     T
                                                            |-3-|
  S  S S S S S T T S S S S S S S  T  T S   S  S S S S S S S.E E E E..
|-0--2h3p2p0-2h3p2p0-2h3p0-2h3p2--5p=3-2-|-0--2-0-------------------------|
|----------------------------------------|--------3-1-3-1-----------------|
|----------------------------------------|----------------4s3s2-0---------|
|----------------------------------------|------------------------2-------|
|----------------------------------------|--------------------------------|
|----------------------------------------|--------------------------------|
|
| Q.           H                 +E        Q.           H             +E
|----------------------------------------|--------------------------------|
|----------------------------------------|--------------------------------|
|----------------------------------------|--------------5-------------(5)-|
|-2------------4-----------------(4)-----|-5------------5-------------(5)-|
|-2------------5-----------------(5)-----|-5------------3-------------(3)-|
|-0------------2-----------------(2)-----|-3------------------------------|


              D5      C5    D5  E5
  E   +E  +E  E   +E  +E  E E   S S H..
|-----------------------------|------------|
|-----------------------------|------------|
|-2b3-(2)-(2)-2b3-(2)-(2)-2-0-|------------|
|-----------------------------|------------|
|-----------------------------|------------|
|-----------------------------|-5p3p0------|
|
| Q.          Q        Q    E   W
|-----------------------------|------------|
|-----------------------------|------------|
|-5-----------7--------5----7-|------------|
|-5-----------7--------5----7-|-2----------|
|-3-----------5--------3----5-|-2----------|
|-----------------------------|-0----------|


  E5            D/F#                   G5                    C5
                                                              ~~~~~~~~~~
   |--3--| |---3---|  |--3--|
   E   E E E  E    E  E  E  E  E  E     E      +E   +S   +S   H     +E
|--------------------------12-14-15--|-15b18==(15)-(15)r(15)-15----(15)-|
|--------------------12-15-----------|----------------------------------|
|----------9-11---12-----------------|----------------------------------|
|--------9---------------------------|----------------------------------|
|-----10-----------------------------|----------------------------------|
|-12---------------------------------|----------------------------------|
|
|  Q.           H                +E     Q.                    H     +E
|------------------------------------|----------------------------------|
|------------------------------------|----------------------------------|
|------------------------------------|------------------------5-----(5)-|
|--2------------4----------------(4)-|--5---------------------5-----(5)-|
|--2------------5----------------(5)-|--5---------------------3-----(3)-|
|--0------------2----------------(2)-|--3-------------------------------|


              D5         C5    D5   E5
                                     ~~
   E     +Q    E     +E   E  E  E    W
|-20b22-(20)--20b22-(20)-20-19-20-|-19----|
|---------------------------------|-------|
|---------------------------------|-------|
|---------------------------------|-------|
|---------------------------------|-------|
|---------------------------------|-------|
|
|  Q.          Q          Q     E    W
|---------------------------------|-------|
|---------------------------------|-------|
|--5-----------7----------5-----7-|-------|
|--5-----------7----------5-----7-|--2----|
|--3-----------5----------3-----5-|--2----|
|---------------------------------|--0----|


  E5              D/F#                         G5               C5
                                                                    ~~
   |--3---|  |---3---|  |--3--|  |----3----|
   E   E  E  E  E    E  E  E  E  E  E      E    E      +E   +E   E  H
|-19--15-17-19-17---15-17-14-15-17-15-----12-|-12b15==(12)-(12)r12-12-------|
|--------------------------------------------|------------------------------|
|--------------------------------------------|------------------------------|
|--------------------------------------------|------------------------------|
|--------------------------------------------|------------------------------|
|--------------------------------------------|------------------------------|
|
|  Q.             H                   +E        Q.               H      +E
|--------------------------------------------|------------------------------|
|--------------------------------------------|------------------------------|
|--------------------------------------------|-------------------5------(5)-|
|--2--------------4-------------------(4)----|--5----------------5------(5)-|
|--2--------------5-------------------(5)----|--5----------------3------(3)-|
|--0--------------2-------------------(2)----|--3---------------------------|


                  D5          C5        D5      E5
   E     +E   +E   E      +E   +E   +E   S  S    H     +E   E.  E.
|-17b19-(17)-(17)-17b19==(17)-(17)r(17)-17p15p|=12----(12)-10--12-----|
|---------------------------------------------|-----------------------|
|---------------------------------------------|-----------------------|
|---------------------------------------------|-----------------------|
|---------------------------------------------|-----------------------|
|---------------------------------------------|-----------------------|
|
|  Q.              Q            Q        E       W
|---------------------------------------------|-----------------------|
|---------------------------------------------|-----------------------|
|--5---------------7------------5--------7----|-----------------------|
|--5---------------7------------5--------7----|--2--------------------|
|--3---------------5------------3--------5----|--2--------------------|
|---------------------------------------------|--0--------------------|


  E5    D/F#                 G5    C5
   ~~~~~~~~~~~~               ~~~
   H       +E   E.  E.        H.        Q
|-12------(12)-19--19------|-17--------14-----|
|--------------------------|------------------|
|--------------------------|------------------|
|--------------------------|------------------|
|--------------------------|------------------|
|--------------------------|------------------|
|
|  Q.   H              +E     Q.   H      +E
|--------------------------|------------------|
|--------------------------|------------------|
|--------------------------|-------5------(5)-|
|--2----4--------------(4)-|--5----5------(5)-|
|--2----5--------------(5)-|--5----3------(3)-|
|--0----2--------------(2)-|--3---------------|


          D5     C5         D5      Em
                                      ~~~~
               |---3---|
   E.  E.  E.  E    E  E  S  S  S    +W
|-17--15--14--15---14-------------|---------|
|---------------------15-12-------|---------|
|---------------------------14-12-|-(12)----|
|---------------------------------|---------|
|---------------------------------|---------|
|---------------------------------|---------|
|
|  Q.      Q     Q           E        W
|---------------------------------|---------|
|---------------------------------|---------|
|--5-------7-----5-----------7----|---------|
|--5-------7-----5-----------7----|---5-----|
|--3-------5-----3-----------5----|---7-----|
|---------------------------------|---0-----|


  N.C.
    E    E    E   E    E   E   +Q
|-------15------------10-----------------|
|----------------------------------------|
|-/12--------12s==7--------7---(7)-------|
|----------------------------------------|
|----------------------------------------|
|----------------------------------------|
|
|   S S  S S  S S S S  S S S S  S  S S S
|----------------------------------------|
|----------------------------------------|
|----------------------------------------|
|----------------------------------------|
|----------------------------------------|
|---0-0--0-0--0-0-2-2--2-2-2-2--2--2-2-2-|


    E    E    E   E    E   E   +Q
|-------15------------10-----------------|
|----------------------------------------|
|-/12--------12s==7--------7---(7)-------|
|----------------------------------------|
|----------------------------------------|
|----------------------------------------|
|
|   S S  S S  S S S S  S S S S  S  S S S
|----------------------------------------|
|----------------------------------------|
|----------------------------------------|
|----------------------------------------|
|-----------------3-3--3-3-3-3--3--3-3-3-|
|---3-3--3-3--3-3------------------------|


  N.C.
                                   ~~~~~~~~~~
  S  S S S S  S S  S S S  S S S  S E      W
|--------------------------------------|-----------------------------------|
|--------------------------------------|-----------------------------------|
|---------------7----------------------|-[9]-------------------------------|
|-9-10-9-7-9-10---10-9-7-10-9-7--------|-----------------------------------|
|-------------------------------10-7---|-----------------------------------|
|--------------------------------------|-----------------------------------|
|
| S  S S S S  S S  S S S  S S S  S S S    S  S S S S S S S S S S S S S S S
|--------------------------------------|-----------------------------------|
|--------------------------------------|-----------------------------------|
|--------------------------------------|-----------------------------------|
|--------------------------------------|-----------------------------------|
|-3--3-3-3-3--3-5--5-5-5--3-3-3--3-5-5-|-----------------------------------|
|--------------------------------------|--0--0-0-0-0-0-0-0-0-0-0-0-0-0-0-0-|


  N.C.
                            |--3--| |--3--|
  Q.           Q.           S S   S S S   S
|-------------------------------------------|
|-------------------------------------------|
|-------------------------------------------|
|-----------------------------------------0-|
|---------------------------------0-2-3-----|
|-0------------2------------2-3-------------|
|
| S  S S S S S S  S S S S S S   S   S   S
|-------------------------------------------|
|-------------------------------------------|
|-------------------------------------------|
|-------------------------------------------|
|-------------------------------------------|
|-0--0-0-0-0-0-2--2-2-2-2-2-2---2---2---2---|


  |--3--| |--3--| |--3--| |--3--| |--3--| |--3--| |--3---| |---3---|
  S S   S S S   S S S   S S S   S S S   S S S   S S  S   S S  S    S
|---------------------------------------------------------------------|
|---------------------------------------------------------------------|
|-----------------------4-5-7-----------5-7-9------------7-9-11---12--|
|-2-4---5-7-9---4-5-7-----------5-7-9-----------7-9-10----------------|
|---------------------------------------------------------------------|
|---------------------------------------------------------------------|
|
| S   S   S   S   S   S   S   S   S   S   S   S   S    S   S    S
|---------------------------------------------------------------------|
|---------------------------------------------------------------------|
|---------------------------------------------------------------------|
|---------------------------------------------------------------------|
|-------------------------3---3---3---3---3---3---3----3---3----3-----|
|-3---3---3---3---3---3-----------------------------------------------|


  N.C.
  |---3---| |---3---|  |---3---|  |---3---|  |---3---|  |---3---|  |---3---|  |---3---|
  S  S    S S  S    S  S  S    S  S  S    S  S  S    S  S  S    S  S  S    S  S  S    S
|---------------------------------------------------------------------------------------|
|------------------------------------------------------------------------------------13-|
|-----------9-11---12------------11-12---14------------12-14---16---------12-14-16------|
|-9-10---12-----------10-12---14------------12-14---16------------14-16-----------------|
|---------------------------------------------------------------------------------------|
|---------------------------------------------------------------------------------------|
|
| S    S    S    S     S    S     S    S     S    S     S    S     S    S     S    S
|---------------------------------------------------------------------------------------|
|---------------------------------------------------------------------------------------|
|---------------------------------------------------------------------------------------|
|---------------------------------------------------------------------------------------|
|-3----3----3----3-----3----3-----5----5-----5----5-----3----3-----3----3-----5----5----|
|---------------------------------------------------------------------------------------|


   |---3---|  |---3---|  |---3---|  |---3---|  |---3---|  |---3---|
   S  S    S  S  S    S  S  S    S  S  S    S  S  S    S  S  S    S  E       +E
|---------------12---14------------12-14---15------------14-15---17-20b22---(20)------|
|---------13-15------------13---15------------13-15---17------------------------------|
|-14-16-----------------16------------------------------------------------------------|
|-------------------------------------------------------------------------------------|
|-------------------------------------------------------------------------------------|
|-------------------------------------------------------------------------------------|
|
|  S    S     S    S     S    S     S    S     S    S     S    S     S    S   S  S
|-------------------------------------------------------------------------------------|
|-------------------------------------------------------------------------------------|
|-------------------------------------------------------------------------------------|
|-------------------------------------------------------------------------------------|
|-------------------------------------------------------------------------------------|
|--0----0-----0----0-----0----0-----0----0-----0----0-----0----0-----0----0---0--0----|


  N.C.
   E       +E     +E     E       +E     +E     E       +E
|-20b22---(20)---(20)---20b22---(20)---(20)---20b22---(20)---|
|------------------------------------------------------------|
|------------------------------------------------------------|
|------------------------------------------------------------|
|------------------------------------------------------------|
|------------------------------------------------------------|
|
|  S    S   S  S   S  S  S    S   S  S   S  S  S    S   S  S
|------------------------------------------------------------|
|------------------------------------------------------------|
|------------------------------------------------------------|
|------------------------------------------------------------|
|------------------------------------------------------------|
|--0----0---0--0---0--0--2----2---2--2---2--2--2----2---2--2-|


                                          ~~~
   S      +S   +S   S  +S      +S   S  S  Q.            S  S
|-20b21==(20)r(20)-17-(17)b18r(17)-15-17-15------------15-15-|
|------------------------------------------------------------|
|------------------------------------------------------------|
|------------------------------------------------------------|
|------------------------------------------------------------|
|------------------------------------------------------------|
|
|  S       S    S   S   S       S   S  S  S  S S S S S  S  S
|------------------------------------------------------------|
|------------------------------------------------------------|
|------------------------------------------------------------|
|------------------------------------------------------------|
|-----------------------------------3--3--3--3-3-3-3-3--3--3-|
|--3-------3----3---3---3-------3----------------------------|


  N.C.
   |-----3------|       |-----3------|
   E       E    E       E    E       E    E       E    S  +S      +S   S
|---------17-----------17-----------17-----------17---15-(15)b18-(15)-15-|
|-20b22--------20b22--------20b22--------20b22---------------------------|
|------------------------------------------------------------------------|
|------------------------------------------------------------------------|
|------------------------------------------------------------------------|
|------------------------------------------------------------------------|
|
|  S    S    S       S  S S       S    S  S    S  S S  S   S       S   S
|------------------------------------------------------------------------|
|------------------------------------------------------------------------|
|------------------------------------------------------------------------|
|------------------------------------------------------------------------|
|--3----3----3-------3--3-3-------5----5--5----5--3-3--3---3-------5---5-|
|------------------------------------------------------------------------|


                                 ~~
   |----3----|    |----3----|
   E    E    E    E    E    E    H
|-12---------------------------------------------|
|------15---12---12--------12--------------------|
|---------------------14--------12---------------|
|------------------------------------------------|
|------------------------------------------------|
|------------------------------------------------|
|
|  S S    S    S  S S    S    S  S S S S S S S S
|------------------------------------------------|
|------------------------------------------------|
|------------------------------------------------|
|------------------------------------------------|
|------------------------------------------------|
|--0-0----0----0--0-0----0----0--0-0-0-0-0-0-0-0-|


  N.C.
   S      S   S  S  S      S   S  S  S      S   S  S  S      S   S  S
|------------12---------------12---------------12---------------12----|
|--------12-----15--------12-----15--------12-----15--------12-----15-|
|-14b16-(14)-------14b16-(14)-------14b16-(14)-------14b16-(14)-------|
|---------------------------------------------------------------------|
|---------------------------------------------------------------------|
|---------------------------------------------------------------------|
|
|  S      S   S  S  S      S   S  S  S      S   S  S  S      S   S  S
|---------------------------------------------------------------------|
|---------------------------------------------------------------------|
|---------------------------------------------------------------------|
|---------------------------------------------------------------------|
|---------------------------------------------------------------------|
|--0------0---0--0--0------0---2--2--2------2---2--2--2------2---2--2-|


   S      S   S  S  S      S   S  S  S      S   S  S  S      S   S  S
|------------12---------------12---------------12---------------12----|
|--------12-----15--------12-----15--------12-----15--------12-----15-|
|-14b16-(14)-------14b16-(14)-------14b16-(14)-------14b16-(14)-------|
|---------------------------------------------------------------------|
|---------------------------------------------------------------------|
|---------------------------------------------------------------------|
|
|  S      S   S  S  S      S   S  S  S      S   S  S  S      S   S  S
|---------------------------------------------------------------------|
|---------------------------------------------------------------------|
|---------------------------------------------------------------------|
|---------------------------------------------------------------------|
|------------------------------3--3--3------3---3--3--3------3---3--3-|
|--3------3---3--3--3------3------------------------------------------|


  N.C.
   S      S   S  S  S      S   S  S  S  S  S  S  S  S  S  S
|------------12---------------12----------------------------|
|--------12-----15--------12-----15-12----------------------|
|-14b16-(14)-------14b16-(14)----------15-14-12-15-14-12----|
|--------------------------------------------------------12-|
|-----------------------------------------------------------|
|-----------------------------------------------------------|
|
|  S      S   S  S  S      S   S  S  S  S  S  S  S  S  S  S
|-----------------------------------------------------------|
|-----------------------------------------------------------|
|-----------------------------------------------------------|
|-----------------------------------------------------------|
|--3------3---3--3--3------3---5--5--5--5--3--3--3--3--5--5-|
|-----------------------------------------------------------|


   ~~
   W
|----------------------------------|
|----------------------------------|
|----------------------------------|
|-14-------------------------------|
|----------------------------------|
|----------------------------------|
|
|  S S S S S S S S S S S S S S S S
|----------------------------------|
|----------------------------------|
|----------------------------------|
|----------------------------------|
|----------------------------------|
|--0-0-0-0-0-0-0-0-0-0-0-0-0-0-0-0-|


  N.C.
   |----3----|    |----3----|    |----3----|    |----3----|
   E    E    E    E    E    E    E    E    E    E    E    E
|----------------------------------------------12---14---15---|
|-------------------------------------------------------------|
|-------------------------------------------------------------|
|--------------------------17---16---14-----------------------|
|----------------14-----------------------17------------------|
|-12---14---15--------15--------------------------------------|
|
|  S S    S    S  S S    S    S  S S    S    S  S S    S    S
|-------------------------------------------------------------|
|-------------------------------------------------------------|
|-------------------------------------------------------------|
|-------------------------------------------------------------|
|-------------------------------------------------------------|
|--0-0----0----0--0-0----2----2--2-2----2----2--2-2----2----2-|


   |----3----|    |----3----|
   E    E    E    E    E    E    +H
|-19---15---19---15---14---15---(15)-----------------|
|----------------------------------------------------|
|----------------------------------------------------|
|----------------------------------------------------|
|----------------------------------------------------|
|----------------------------------------------------|
|
|  S S    S    S  S S    S    S   S  S S S S S S S
|----------------------------------------------------|
|----------------------------------------------------|
|----------------------------------------------------|
|----------------------------------------------------|
|------------------------3----3---3--3-3-3-3-3-3-3---|
|--3-3----3----3--3-3--------------------------------|


  N.C.
   E       +Q         E       +E     E    E    E
|-14b15---(14)-------14b15---(14)---14---12---14---|
|--------------------------------------------------|
|--------------------------------------------------|
|--------------------------------------------------|
|--------------------------------------------------|
|--------------------------------------------------|
|
|  S    S   S  S S S  S    S   S  S  S S  S S  S S
|--------------------------------------------------|
|--------------------------------------------------|
|--------------------------------------------------|
|--------------------------------------------------|
|--3----3---3--3-3-3--5----5---5--5--3-3--3-3--5-5-|
|--------------------------------------------------|


   E       +S   E.      E    H
|-12b14---(12)-12------14---12---------------|
|--------------------------------------------|
|--------------------------------------------|
|--------------------------------------------|
|--------------------------------------------|
|--------------------------------------------|
|
|  S    S   S   S  S S  S S  S S S S S S S S
|--------------------------------------------|
|--------------------------------------------|
|--------------------------------------------|
|--------------------------------------------|
|--------------------------------------------|
|--0----0---0---0--0-0--0-0--0-0-0-0-0-0-0-0-|


  N.C.
          |---3---|         |--3---|        |--3--|
   +E     S  S    S  +E     S  S   S +E     S S   S +E    E
|-(12)--------------------------------------------------------|
|--------13-12---10-(10)---12-10---8-(8)---10-8---7-(7)---5---|
|-------------------------------------------------------------|
|-------------------------------------------------------------|
|-------------------------------------------------------------|
|-------------------------------------------------------------|
|
|   S  S  S    S      S  S  S    S    S  S  S   S    S  S S S
|-------------------------------------------------------------|
|-------------------------------------------------------------|
|-------------------------------------------------------------|
|-------------------------------------------------------------|
|-------------------------------------------------------------|
|---0--0--0----0------0--0--2----2----2--2--2---2----2--2-2-2-|


  E   E   +E    S S H
|-----------------------------------|
|-----------------------------------|
|-----------------------------------|
|-7---5---(5)---7-5-7---------------|
|-----------------------------------|
|-----------------------------------|
|
| S S S S  S  S S S S S S S S S S S
|-----------------------------------|
|-----------------------------------|
|-----------------------------------|
|-----------------------------------|
|---------------3-3-3-3-3-3-3-3-3-3-|
|-3-3-3-3--3--3---------------------|


  N.C.
   S      S   S  S  S      S   S  S  S  S  S  S  S  S  S  S
|------------12---------------12----------------------------|
|--------12-----15--------12-----15-12----------------------|
|-14b16-(14)-------14b16-(14)----------15-14-12-15-14-12----|
|--------------------------------------------------------12-|
|-----------------------------------------------------------|
|-----------------------------------------------------------|
|
|  S      S   S  S  S      S   S  S  S  S  S  S  S  S  S  S
|-----------------------------------------------------------|
|-----------------------------------------------------------|
|-----------------------------------------------------------|
|-----------------------------------------------------------|
|--3------3---3--3--3------3---5--5--5--5--3--3--3--3--5--5-|
|-----------------------------------------------------------|


   ~~
   W
|----------------------------------|
|----------------------------------|
|----------------------------------|
|-14-------------------------------|
|----------------------------------|
|----------------------------------|
|
|  S S S S S S S S S S S S S S S S
|----------------------------------|
|----------------------------------|
|----------------------------------|
|----------------------------------|
|----------------------------------|
|--0-0-0-0-0-0-0-0-0-0-0-0-0-0-0-0-|


  N.C.
   E       +E     +E     E       +E     +E     E    E
|-------------------------------------------------------|
|-15------(15)---(15)---15------(15)---(15)-------------|
|-14b16---(14)---(14)---14b16---(14)---(14)---14---12---|
|-------------------------------------------------------|
|-------------------------------------------------------|
|-------------------------------------------------------|
|
|  S    S   S  S   S  S  S    S   S  S   S  S  S S  S S
|-------------------------------------------------------|
|-------------------------------------------------------|
|-------------------------------------------------------|
|-------------------------------------------------------|
|-------------------------------------------------------|
|--0----0---0--0---0--0--2----2---2--2---2--2--2-2--2-2-|


   |-------3-------|
   Q      Q        Q      S  S  Q.
|--------------------------------------------|
|--------------------------------------------|
|-14-----12-------14-------------------------|
|--------------------------------------------|
|------------------------14-12-14------------|
|--------------------------------------------|
|
|  S S S    S S S    S S  S  S  S  S S S S S
|--------------------------------------------|
|--------------------------------------------|
|--------------------------------------------|
|--------------------------------------------|
|--------------------3-3--3--3--3--3-3-3-3-3-|
|--3-3-3----3-3-3----------------------------|


  N.C.
  |---3---|   |---3---|   |---3---|   |---3---|
  E   E   E   E   E   E   E   E   E   E   E   E
|-------------------------------------------------|
|-5---3-----------3-------------------------------|
|---------5---4-------5---4---2---5---4---2-------|
|---------------------------------------------5---|
|-------------------------------------------------|
|-------------------------------------------------|
|
| S S   S   S S S   S   S S S   S   S S S   S   S
|-------------------------------------------------|
|-------------------------------------------------|
|-------------------------------------------------|
|-------------------------------------------------|
|-3-3---3---3-3-3---5---5-5-5---3---3-3-3---5---5-|
|-------------------------------------------------|


  |---3---|   |---3---|   |---3---|   |---3---|
  E   E   E   E   E   E   E   E   E   E   E   E
|--------------------------------------------------*|
|--------------------------------------------------*|
|-4---2-----------2--------------------------------*|
|---------5---4-------5---4---2---4---2------------*|
|-----------------------------------------5---3----*|
|--------------------------------------------------*|
|
| S S   S   S S S   S   S S S   S   S S S   S   S
|--------------------------------------------------*|
|--------------------------------------------------*|
|--------------------------------------------------*|
|--------------------------------------------------*|
|--------------------------------------------------*|
|-0-0---0---0-0-0---0---0-0-0---0---0-0-0---0---0--*|




--------------------------------------------------------------------------------


Duration Legend
---------------
W - whole; H - half; Q - quarter; E - 8th; S - 16th; T - 32nd; X - 64th; a - acciaccatura
+ - note tied to previous; . - note dotted; .. - note double dotted
Uncapitalized letters represent notes that are staccato (1/2 duration)
Irregular groupings are notated above the duration line
Duration letters will always appear directly above the note/fret number it represents the
duration for.  Duration letters with no fret number below them represent rests.  Multi-
bar rests are notated in the form Wxn, where n is the number of bars to rest for.  Low
melody durations appear below the staff

Tablature Legend
----------------
 h   - hammer-on
 p   - pull-off
 b   - bend
 pb  - pre-bend
 r   - bend release (if no number after the r, then release immediately)
 /\  - slide into or out of (from/to "nowhere")
 s   - legato slide
 S   - shift slide
 - natural harmonic
[n]  - artificial harmonic
n(n) - tapped harmonic
 ~   - vibrato
 tr  - trill
 T   - tap
 TP  - trem. picking
 PM  - palm muting
\n/  - tremolo bar dip; n = amount to dip
 \n  - tremolo bar down
 n/  - tremolo bar up
/n\  - tremolo bar inverted dip
 =   - hold bend; also acts as connecting device for hammers/pulls
 <> - volume swell (louder/softer)
 x   - on rhythm slash represents muted slash
 o   - on rhythm slash represents single note slash

Misc Legend
-----------
 |  - bar
||  - double bar
||o - repeat start
o|| - repeat end
*|  - double bar (ending)
 :  - bar (freetime)
 $  - Segno
 &  - Coda
Tempo markers -  = BPM(8/16=s8/s16), where s8 = swing 8ths, s16 = swing 16ths

Related for The Juggernaut Divine tab