Song name
# A B C D E F G H I J K L M N O P Q R S T U V W X Y Z

Armageddon - Funeral In Space tab

#----------------------------------PLEASE NOTE---------------------------------#
#This file is the author's own work and represents their interpretation of the #
#song. You may only use this file for private study, scholarship, or research. #
#------------------------------------------------------------------------------#

FUNERAL IN SPACE
As recorded by Armageddon
(From the 1997 Album CROSSING THE RUBICON)


Transcribed by The Foreverlorn

 

 

Gtr I (E A D G B E) - 'Untitled'
Gtr II (E A D G B E) - 'Untitled'
Gtr III (E A D G B E) - 'Untitled'
Gtr IV (E A D G B E) - 'Untitled'
Gtr V (E A D G B E) - 'Untitled'


 Intro
  Q.=105
  Dsus2         Dsus2/C       Dsus2/Bb      Dsus2/C
 6/8
  Gtr I
  E E E E E E   E E E E E E   E E E E E E   E E E E E E
|-------0-----|-------0-----|-------0-----|-------0-----|
|-----6---6---|-----6---6---|-----6---6---|-----6---6---|
|---7-------7-|---7-------7-|---7-------7-|---7-------7-|
|-0-----------|-0-----------|-0-----------|-0-----------|
|-------------|-------------|-------------|-------------|
|-------------|-------------|-------------|-------------|
|
| Gtr II
| E E E E E E   E E E E E E   E E E E E E   E E E E E E
|-------0-----|-------0-----|-------0-----|-------0-----|
|-----3---3---|-----3---3---|-----3---3---|-----3---3---|
|---2-------2-|---2-------2-|---2-------2-|---2-------2-|
|-0-----------|-------------|-------------|-------------|
|-------------|-3-----------|-1-----------|-3-----------|
|-------------|-------------|-------------|-------------|


  Dsus2/Bb      Dsus2/C       Dsus2
  E E E E E E   E E E E E E   E E E E E E   E E E E E E
|-------0-----|-------0-----|-------0-----|-------0-----|
|-----6---6---|-----6---6---|-----6---6---|-----6---6---|
|---7-------7-|---7-------7-|---7-------7-|---7-------7-|
|-0-----------|-0-----------|-0-----------|-0-----------|
|-------------|-------------|-------------|-------------|
|-------------|-------------|-------------|-------------|
|
| E E E E E E   E E E E E E   E E E E E E   E E E E E E
|-------0-----|-------0-----|-------0-----|-------0-----|
|-----3---3---|-----3---3---|-----3---3---|-----3---3---|
|---2-------2-|---2-------2-|---2-------2-|---2-------2-|
|-------------|-------------|-0-----------|-0-----------|
|-1-----------|-3-----------|-------------|-------------|
|-------------|-------------|-------------|-------------|


  Dsus2         Dsus2/C       Dsus2/Bb      Dsus2
  E E E E E E   E E E E E E   E E E E E E   E E E E E E
|-------8-----|-------8-----|-------8-----|-------8-----|
|-----6---6---|-----6---6---|-----6---6---|-----6---6---|
|---7-------7-|---7-------7-|---7-------7-|---7-------7-|
|-0-----------|-0-----------|-0-----------|-0-----------|
|-------------|-------------|-------------|-------------|
|-------------|-------------|-------------|-------------|
|
| E E E E E E   E E E E E E   E E E E E E   E E E E E E
|-------0-----|-------0-----|-------0-----|-------0-----|
|-----3---3---|-----3---3---|-----3---3---|-----3---3---|
|---2-------2-|---2-------2-|---2-------2-|---2-------2-|
|-0-----------|-------------|-------------|-------------|
|-------------|-3-----------|-1-----------|-3-----------|
|-------------|-------------|-------------|-------------|


                                            Flute Theme
                                             Q=180
  Dsus2/Bb      Dsus2/C       Dsus2          N.C.
                                            4/4
  Gtr IV
  W             W             W              Q      E  E  E  E  E  E
|-------------|-------------|-------------||----------------13-------|
|-------------|-------------|-------------||-------15-13-15----15-13-|
|-------------|-------------|-------------||-------------------------|
|-------------|-------------|-------------||-------------------------|
|-------------|-------------|-------------||-------------------------|
|-------------|-------------|-------------||-------------------------|
|
| Gtr I
| E E E E E E   E E E E E E   E E E E E E    E H..
|-------8-----|-------8-----|-------8-----||-------------------------|
|-----6---6---|-----6---6---|-----6---6---||-------------------------|
|---7-------7-|---7-------7-|---7-------7-||-------------------------|
|-0-----------|-0-----------|-0-----------||-0-----------------------|
|-------------|-------------|-------------||-------------------------|
|-------------|-------------|-------------||-------------------------|
|
| Gtr II
| E E E E E E   E E E E E E   E E E E E E    E H..
|-------0-----|-------0-----|-------0-----||-------------------------|
|-----3---3---|-----3---3---|-----3---3---||-------------------------|
|---2-------2-|---2-------2-|---2-------2-||-------------------------|
|-------------|-------------|-0-----------||-0-----------------------|
|-1-----------|-3-----------|-------------||-------------------------|
|-------------|-------------|-------------||-------------------------|


  Dm                 Bb
  Gtr IV
   W                  +Q     E  E  E  E  E  E
|------------------|-----------------13-------|
|-15---------------|-(15)---15-13-15----15-13-|
|------------------|--------------------------|
|------------------|--------------------------|
|------------------|--------------------------|
|------------------|--------------------------|
|
| Gtr III
|  W                  +W
|------------------|--------------------------|
|------------------|--------------------------|
|------------------|--------------------------|
|-12---------------|-(12)---------------------|
|------------------|--------------------------|
|------------------|--------------------------|
|
| Gtrs I, II
|  E E E E E E E E     E  E  E  E  E  E  E  E
|----------5-------|---------------6----------|
|--------6---6-----|------------------6-------|
|------7-------7---|------------7--------7----|
|----7-----------7-|---------8--------------8-|
|--5---------------|------8-------------------|
|------------------|---6----------------------|


  C                       Am
    W                      +Q     E  E  E  E  E  E
|-----------------------|--------------------------|
|-----------------------|-----------------13-------|
|--14-------------------|-(14)---14-12-14----14-12-|
|-----------------------|--------------------------|
|-----------------------|--------------------------|
|-----------------------|--------------------------|
|
|  +W                      +W
|-----------------------|--------------------------|
|-----------------------|--------------------------|
|-----------------------|--------------------------|
|-(12)------------------|-(12)---------------------|
|-----------------------|--------------------------|
|-----------------------|--------------------------|
|
|   E   E  E E E E E  E     E  E  E  E  E  E  E  E
|--------------8--------|---------------5----------|
|----------------8------|------------------5-------|
|------------9-----9----|------------5--------5----|
|---------10---------10-|---------7--------------7-|
|------10---------------|------7-------------------|
|---8-------------------|---5----------------------|


  Bb                   Gm
    W                   +Q     E  E  E  E  E  E
|--------------------|--------------------------|
|--------------------|-----------------13-------|
|--14----------------|-(14)---14-12-14----14-12-|
|--------------------|--------------------------|
|--------------------|--------------------------|
|--------------------|--------------------------|
|
|  +W                   +W
|--------------------|--------------------------|
|--------------------|--------------------------|
|--------------------|--------------------------|
|-(12)---------------|-(12)---------------------|
|--------------------|--------------------------|
|--------------------|--------------------------|
|
|   E  E E E E E E E     E  E  E  E  E  E  E  E
|------------6-------|---------------3----------|
|--------------6-----|------------------3-------|
|----------7-----7---|------------3--------3----|
|--------8---------8-|---------5--------------5-|
|------8-------------|------5-------------------|
|---6----------------|---3----------------------|


  Dm
    W                   +Q     E  E  E  E  E  E
|--------------------|-----------------13-------|
|--------------------|--------15-13-15----15-13-|
|--------------------|--------------------------|
|--12----------------|-(12)---------------------|
|--------------------|--------------------------|
|--------------------|--------------------------|
|
|  +W                   +W
|--------------------|--------------------------|
|--------------------|--------------------------|
|--------------------|--------------------------|
|-(12)---------------|-(12)---------------------|
|--------------------|--------------------------|
|--------------------|--------------------------|
|
|   E  E E E E E E E     E  E  E  E  E  E  E  E
|------------5-------|---------------5----------|
|----------6---6-----|------------6-----6-------|
|--------7-------7---|---------7-----------7----|
|------7-----------7-|------7-----------------7-|
|---5----------------|---5----------------------|
|--------------------|--------------------------|


   Violin Theme
    Dm                    Bb
      W                    +Q     E  E        E  E  E  E
||----------------------|-----------------------13-------|
||o--15-----------------|-(15)---15-13-------15----15-13-|
||----------------------|--------------------------------|
||----------------------|--------------------------------|
||o---------------------|--------------------------------|
||----------------------|--------------------------------|
|
|                                    |--3--|
|     H        Q    Q       Q.       S  S  S  E  E  E  E
||----------------------|--------------------------------|
||o---------------------|--------------------------------|
||----------------------|-/15-------14h15p14-12----------|
||--/12-------14---15---|-----------------------15-14-12-|
||o---------------------|--------------------------------|
||----------------------|--------------------------------|
|
|     E E E E  E E  E E     E  E  E  E        E  E  E  E
||-------------5--------|---------------------6----------|
||o---------6----6------|------------------------6-------|
||--------7---------7---|------------7--------------7----|
||------7-------------7-|---------8--------------------8-|
||o---5-----------------|------8-------------------------|
||----------------------|---6----------------------------|


  C                       Am
   W                       +Q     E  E        E  E  E  E
|-----------------------|---------------------------------|
|-----------------------|-----------------------13--------|
|-14--------------------|-(14)---14-12-------14----14-12--|
|-----------------------|---------------------------------|
|-----------------------|---------------------------------|
|-----------------------|---------------------------------|
|
|                                    |--3--|
|  H          Q    Q        Q.       S  S  S  E  E  E  E
|-----------------------|---------------------------------|
|-----------------------|---------------------------------|
|-----------------------|-/14-------12h14p12--------------|
|------------12---14----|--------------------15-14-12-----|
|-15--------------------|-----------------------------15--|
|-----------------------|---------------------------------|
|
|  E  E  E E  E E  E  E     E  E  E  E        E  E  E  E
|-------------8---------|---------------------5-----------|
|---------------8-------|------------------------5--------|
|----------9-------9----|------------5--------------5-----|
|-------10-----------10-|---------7--------------------7--|
|----10-----------------|------7--------------------------|
|--8--------------------|---5-----------------------------|


  Bb                   Gm
   W                    +Q     E  E        E  E  E  E
|--------------------|--------------------------------|
|--------------------|-----------------------13-------|
|-14-----------------|-(14)---14-12-------14----14-12-|
|--------------------|--------------------------------|
|--------------------|--------------------------------|
|--------------------|--------------------------------|
|
|                                 |--3--|
|  H        Q    Q       Q.       S  S  S  E  E  E  E
|--------------------|--------------------------------|
|--------------------|--------------------------------|
|--------------------|--------------------------------|
|---------------12---|-/17-------15h17p15-14----------|
|-13-------15--------|-----------------------17-15-13-|
|--------------------|--------------------------------|
|
|  E E E E  E E  E E     E  E  E  E        E  E  E  E
|-----------6--------|---------------------3----------|
|-------------6------|------------------------3-------|
|--------7-------7---|------------3--------------3----|
|------8-----------8-|---------5--------------------5-|
|----8---------------|------5-------------------------|
|--6-----------------|---3----------------------------|


  Dm
   W                  +Q     E  E  E  E  E  E
|------------------|-----------------13----------||
|------------------|--------15-13-15----15-13---o||
|------------------|-----------------------------||
|-12---------------|-(12)------------------------||
|------------------|----------------------------o||
|------------------|-----------------------------||
|
|  W                  +W
|------------------|-----------------------------||
|------------------|----------------------------o||
|------------------|-----------------------------||
|------------------|-----------------------------||
|-12---------------|-(12)-----------------------o||
|------------------|-----------------------------||
|
|  E E E E E E E E     E  E  E  E  E  E  E  E
|----------5-------|---------------5-------------||
|--------6---6-----|------------6-----6---------o||
|------7-------7---|---------7-----------7-------||
|----7-----------7-|------7-----------------7----||
|--5---------------|---5------------------------o||
|------------------|-----------------------------||


 Harmony Theme
  Dm                   Bb
                                 |--3--|
   H        Q    Q       Q.      S  S  S  E  E  E  E
|--------------------|-/22------20h22p20-18----------|
|-18-------20---22---|----------------------22-20-18-|
|--------------------|-------------------------------|
|--------------------|-------------------------------|
|--------------------|-------------------------------|
|--------------------|-------------------------------|
|
|                                |--3--|
|  H        Q    Q       Q.      S  S  S  E  E  E  E
|--------------------|-/18------17h18p17-15----------|
|-15-------17---18---|----------------------18-17-15-|
|--------------------|-------------------------------|
|--------------------|-------------------------------|
|--------------------|-------------------------------|
|--------------------|-------------------------------|
|
|  E E E E  E E  E E     E  E E  E        E  E  E  E
|-----------5--------|--------------------6----------|
|--------6----6------|-----------------------6-------|
|------7---------7---|-----------7--------------7----|
|----7-------------7-|--------8--------------------8-|
|--5-----------------|------8------------------------|
|--------------------|---6---------------------------|


  C                       Am
                                    |--3--|
   H          Q    Q        Q.      S  S  S  E  E  E  E
|-----------------------|-/20------18h20p18-17----------|
|-17---------18---20----|----------------------20-18-17-|
|-----------------------|-------------------------------|
|-----------------------|-------------------------------|
|-----------------------|-------------------------------|
|-----------------------|-------------------------------|
|
|                                   |--3--|
|  H          Q    Q        Q.      S  S  S  E  E  E  E
|-----------------------|-/17------15h17p15-------------|
|------------15---17----|-------------------18-17-15----|
|-17--------------------|----------------------------17-|
|-----------------------|-------------------------------|
|-----------------------|-------------------------------|
|-----------------------|-------------------------------|
|
|  E  E  E E  E E  E  E     E  E E  E        E  E  E  E
|-------------8---------|--------------------5----------|
|---------------8-------|-----------------------5-------|
|----------9-------9----|-----------5--------------5----|
|-------10-----------10-|--------7--------------------7-|
|----10-----------------|------7------------------------|
|--8--------------------|---5---------------------------|


  Bb                   Gm
                                 |--3--|
   H        Q    Q       Q.      S  S  S  E  E  E  E
|--------------------|--18------17h18p17-15----------||
|-15-------17---18---|----------------------18-17-15-||
|--------------------|-------------------------------||
|--------------------|-------------------------------||
|--------------------|-------------------------------||
|--------------------|-------------------------------||
|
|                                |--3--|
|  H        Q    Q       Q.      S  S  S  E  E  E  E
|--------------------|-------------------------------||
|---------------15---|-/20------18h20p18-17----------||
|-15-------17--------|----------------------19-17-15-||
|--------------------|-------------------------------||
|--------------------|-------------------------------||
|--------------------|-------------------------------||
|
|  E E E E  E E  E E     E  E E  E        E  E  E  E
|-----------6--------|--------------------3----------||
|-------------6------|-----------------------3-------||
|--------7-------7---|-----------3--------------3----||
|------8-----------8-|--------5--------------------5-||
|----8---------------|------5------------------------||
|--6-----------------|---3---------------------------||


 Intro Riff
  Dsus2                Dsus2/C
 6/8
  Gtrs III, IV
            >
   E   E   +H           +H.
|--------------------|-----------------|
|-15-(15)-(15)-------|-(15)------------|
|-12s=14--(14)-------|-(14)------------|
|--------------------|-----------------|
|--------------------|-----------------|
|--------------------|-----------------|
|
| Gtr I
|  E   E    E  E E E     E  E E E E E
|--------------0-----|----------0------|
|-----------6----6---|--------6---6----|
|------7-----------7-|------7-------7--|
|--0-----------------|---0-------------|
|--------------------|-----------------|
|--------------------|-----------------|
|
| Gtr II
|  E   E    E  E E E     E  E E E E E
|--------------0-----|----------0------|
|-----------3----3---|--------3---3----|
|------2-----------2-|------2-------2--|
|--0-----------------|-----------------|
|--------------------|---3-------------|
|--------------------|-----------------|


  Dsus2/Bb      Dsus2/C       Dsus2/Bb      Dsus2/C
  Gtr I
  E E E E E E   E E E E E E   E E E E E E   E E E E E E
|-------0-----|-------0-----|-------0-----|-------0-----|
|-----6---6---|-----6---6---|-----6---6---|-----6---6---|
|---7-------7-|---7-------7-|---7-------7-|---7-------7-|
|-0-----------|-0-----------|-0-----------|-0-----------|
|-------------|-------------|-------------|-------------|
|-------------|-------------|-------------|-------------|
|
| Gtr II
| E E E E E E   E E E E E E   E E E E E E   E E E E E E
|-------0-----|-------0-----|-------0-----|-------0-----|
|-----3---3---|-----3---3---|-----3---3---|-----3---3---|
|---2-------2-|---2-------2-|---2-------2-|---2-------2-|
|-------------|-------------|-------------|-------------|
|-1-----------|-3-----------|-1-----------|-3-----------|
|-------------|-------------|-------------|-------------|


  Dsus2
  E E E E E E   E E E E E E
|-------0-----|-------0-----|
|-----6---6---|-----6---6---|
|---7-------7-|---7-------7-|
|-0-----------|-0-----------|
|-------------|-------------|
|-------------|-------------|
|
| E E E E E E   E E E E E E
|-------0-----|-------0-----|
|-----3---3---|-----3---3---|
|---2-------2-|---2-------2-|
|-0-----------|-0-----------|
|-------------|-------------|
|-------------|-------------|


  Dsus2         Dsus2/C       Dsus2/Bb      Dsus2/C
  E E E E E E   E E E E E E   E E E E E E   E E E E E E
|-------8-----|-------8-----|-------8-----|-------8-----|
|-----6---6---|-----6---6---|-----6---6---|-----6---6---|
|---7-------7-|---7-------7-|---7-------7-|---7-------7-|
|-0-----------|-0-----------|-0-----------|-0-----------|
|-------------|-------------|-------------|-------------|
|-------------|-------------|-------------|-------------|
|
| E E E E E E   E E E E E E   E E E E E E   E E E E E E
|-------0-----|-------0-----|-------0-----|-------0-----|
|-----3---3---|-----3---3---|-----3---3---|-----3---3---|
|---2-------2-|---2-------2-|---2-------2-|---2-------2-|
|-0-----------|-------------|-------------|-------------|
|-------------|-3-----------|-1-----------|-3-----------|
|-------------|-------------|-------------|-------------|


                              Violin Solo
  Dsus2/Bb      Dsus2/C        Dm                 Bb
                              4/4
  Gtr III
                                <
  W             W               W                  +H..              E
|-------------|-------------||------------------|-----------------------|
|-------------|-------------||-15---------------|-(15)--------------13--|
|-------------|-------------||------------------|-----------------------|
|-------------|-------------||------------------|-----------------------|
|-------------|-------------||------------------|-----------------------|
|-------------|-------------||------------------|-----------------------|
|
| Gtr I
| E E E E E E   E E E E E E     E E E E E E E E     E   E E E E E E  E
|-------8-----|-------8-----||----------5-------|-------------6---------|
|-----6---6---|-----6---6---||--------6---6-----|---------------6-------|
|---7-------7-|---7-------7-||------7-------7---|-----------7-----7-----|
|-0-----------|-0-----------||----7-----------7-|---------8----------8--|
|-------------|-------------||--5---------------|-------8---------------|
|-------------|-------------||------------------|---6-------------------|
|
| Gtr II
| E E E E E E   E E E E E E     E E E E E E E E     E   E E E E E E  E
|-------0-----|-------0-----||----------5-------|-------------6---------|
|-----3---3---|-----3---3---||--------6---6-----|---------------6-------|
|---2-------2-|---2-------2-||------7-------7---|-----------7-----7-----|
|-------------|-------------||----7-----------7-|---------8----------8--|
|-1-----------|-3-----------||--5---------------|-------8---------------|
|-------------|-------------||------------------|---6-------------------|


  C                             Am
  Gtr III
   +Q      Q    Q    E  E        +H             E  E  Q
|-------------------13-12tr13-|-(12tr13)----------12-13---|
|-(13)------------------------|----------------15---------|
|---------15---14-------------|---------------------------|
|-----------------------------|---------------------------|
|-----------------------------|---------------------------|
|-----------------------------|---------------------------|
|
| Gtrs I, II
|   E   E  E E  E E  E  E         E      E E E  E  E  E E
|---------------8-------------|-----------------5---------|
|-----------------8-----------|--------------------5------|
|------------9-------9--------|--------------5--------5---|
|---------10-----------10-----|------------7------------7-|
|------10---------------------|----------7----------------|
|---8-------------------------|---5-----------------------|


  Bb                          Gm
   +Q     +E  H        S  S    Q    Q.     S  Q      +S
|-(13)---(13)s8-------------|----------------------------|
|---------------------11p10-|----------------------------|
|---------------------------|-12---10------9-10-----(10)-|
|---------------------------|----------------------------|
|---------------------------|----------------------------|
|---------------------------|----------------------------|
|
|   E  E   E  E E E E  E       E E  E  E E E    E E
|---------------6-----------|------------3---------------|
|-----------------6---------|--------------3-------------|
|-------------7-----7-------|----------3--------3--------|
|----------8-----------8----|-------5-------------5------|
|------8--------------------|----5-----------------------|
|---6-----------------------|--3-------------------------|


  Dm
                                   |---3---|  |---3---|
   H        S  S  +E   +E   +E     E  E    E  E  E    E  Q.      E
|-------------------------------|--------------------13-17------22--|
|-------------------------------|---------------15------------------|
|-10----------------------------|------------14---------------------|
|----------14-12-(12)-(12)-(12)-|-12-14---15------------------------|
|-------------------------------|-----------------------------------|
|-------------------------------|-----------------------------------|
|
|  E E E E  E      E    E    E     E    E     E    E     E  E E  E
|-----------5-------------------|------------------------5----------|
|--------6---------6------------|------------------6--------6-------|
|------7----------------7-------|-------------7---------------7-----|
|----7-----------------------7--|-------7------------------------7--|
|--5----------------------------|--5--------------------------------|
|-------------------------------|-----------------------------------|


  Dm                            Bb
   H..              S     +S     H        E  E  Q
|-22---------------24b25-(24)-|-24-------22-20-22---|
|-----------------------------|---------------------|
|-----------------------------|---------------------|
|-----------------------------|---------------------|
|-----------------------------|---------------------|
|-----------------------------|---------------------|
|
|  E   E E E E E E  E            E E E E  E  E  E E
|------------5----------------|-----------6---------|
|----------6---6--------------|--------------6------|
|--------7-------7------------|--------7--------7---|
|------7------------7---------|------8------------8-|
|--5--------------------------|----8----------------|
|-----------------------------|--6------------------|


  C                          Am
                                         |----3----|
   +Q      Q.      E  E  E    +H         Q    Q    Q
|-(22)---------------------|----------------------------|
|---------22------20-18-20-|-(20)-------18---17---18----|
|--------------------------|----------------------------|
|--------------------------|----------------------------|
|--------------------------|----------------------------|
|--------------------------|----------------------------|
|
|   E   E  E  E E  E  E  E     E  E E E  E E    E    E
|---------------8----------|-------------5--------------|
|------------------8-------|---------------5------------|
|-------------9-------9----|----------5---------5-------|
|---------10------------10-|--------7----------------7--|
|------10------------------|------7---------------------|
|---8----------------------|---5------------------------|


  Bb                        Gm
            |----3----|
   H        Q    Q    Q      H        Q    Q
|-------------------------|--------------------|
|-18-------17--------17---|-17-------13---15---|
|---------------19--------|--------------------|
|-------------------------|--------------------|
|-------------------------|--------------------|
|-------------------------|--------------------|
|
|  E E E E  E E    E    E    E E E E  E E  E E
|-----------6-------------|-----------3--------|
|-------------6-----------|-------------3------|
|--------7---------7------|--------3-------3---|
|------8----------------8-|------5-----------5-|
|----8--------------------|----5---------------|
|--6----------------------|--3-----------------|


  Dm
  Gtr III
   H        Q.      E
|---------------------|
|-15------------------|
|---------------------|
|----------12------12-|
|---------------------|
|---------------------|
|
| Gtr V
|  W
|---------------------|
|---------------------|
|---------------------|
|---------------------|
|---------------------|
|---------------------|
|
| Gtrs I, II
|  E E E E  E  E E  E
|-----------5---------|
|--------6-----6------|
|------7---------7----|
|----7--------------7-|
|--5------------------|
|---------------------|


                                                          >
   |--3---|  |--3--|  |--3--|  |--3--|  |--3--|  |--3--|
   S   S  S  S  S  S  S  S  S  S  S  S  S  S  S  S  S  S  Q
|--------------------------------------------12-13-15-17-20---|
|--------------------------------------13-15------------------|
|-----------12-------12-14----12-14-15------------------------|
|-12--14-15----14-15-------15---------------------------------|
|-------------------------------------------------------------|
|-------------------------------------------------------------|
|
|  H.                                                     q
|-------------------------------------------------------------|
|-------------------------------------------------------------|
|--------------------------------------------------------19---|
|-------------------------------------------------------------|
|-------------------------------------------------------------|
|-------------------------------------------------------------|
|
|  E         E        E        E        E        E        E E
|---------------------------------------5---------------------|
|------------------------------6-----------------6------------|
|---------------------7-----------------------------------7---|
|------------7----------------------------------------------7-|
|--5----------------------------------------------------------|
|-------------------------------------------------------------|


 Guitar Solo
  Dm                                    Bb
  Gtr V
                     ~~~~                ~~~~
   S      +S   +E   +H         E  +E     H..              E
|-17b20==(17)-(17)-(17)-------17r(17)-|---------------------|
|-------------------------------------|-18------------------|
|-------------------------------------|------------------17-|
|-------------------------------------|---------------------|
|-------------------------------------|---------------------|
|-------------------------------------|---------------------|
|
| Gtrs I, II
|  E            E    E  E E E  E   E     E   E E E E E E  E
|-------------------------5-----------|------------6--------|
|-----------------------6---6---------|--------------6------|
|--------------------7---------7------|----------7-----7----|
|---------------7------------------7--|--------8----------8-|
|--5----------------------------------|------8--------------|
|-------------------------------------|--6------------------|


  C                                     Am
                     ~~~~                ~~~~
   S      +S   +E   +H         E  +E     H..              E
|-15b17==(15)-(15)-(15)-------15r(15)-|-----------------------|
|-------------------------------------|-17--------------------|
|-------------------------------------|------------------14---|
|-------------------------------------|-----------------------|
|-------------------------------------|-----------------------|
|-------------------------------------|-----------------------|
|
|  E            E    E  E E E  E   E     E   E E E E E E  E
|-------------------------8-----------|------------5----------|
|---------------------------8---------|--------------5--------|
|-----------------------9------9------|----------5-----5------|
|-------------------10------------10--|--------7----------7---|
|--------------10---------------------|------7----------------|
|--8----------------------------------|--5--------------------|


  Bb                                        Gm
                                             ~~
   S      +S   +E   +Q     +E   E  +E   E    H        E  +E      +E   E
|-13b15==(13)-(13)-(13)---(13)r13-(13)-12-|-12-------12-(12)b13r(12)----|
|-----------------------------------------|--------------------------15-|
|-----------------------------------------|-----------------------------|
|-----------------------------------------|-----------------------------|
|-----------------------------------------|-----------------------------|
|-----------------------------------------|-----------------------------|
|
|  E            E    E  E   E   E   E   E    E E E E  E   E       E   E
|---------------------------6-------------|-----------3-----------------|
|-------------------------------6---------|---------------3-------------|
|-----------------------7-----------7-----|--------3--------------3-----|
|--------------------8------------------8-|------5--------------------5-|
|---------------8-------------------------|----5------------------------|
|--6--------------------------------------|--3--------------------------|


  Dm
          ~~~~                    ~~
   E     +Q.      E  Q    S  S    W
|------------------------------|--------------------|
|-13b15-(13)-----13-10---------|--------------------|
|------------------------13p12-|-10-----------------|
|------------------------------|--------------------|
|------------------------------|--------------------|
|------------------------------|--------------------|
|
|  E      E  E E  E  E E  E       E E E E E E E E
|-----------------5------------|----------5---------|
|--------------6-----6---------|--------6---6-------|
|------------7---------7-------|------7-------7-----|
|---------7---------------7----|----7-----------7---|
|--5---------------------------|--5-----------------|
|------------------------------|--------------------|


  Dm                           Bb
                                ~~
   |---3---|
   Q   Q   Q     Q.      S S    W
|----------------------------|------------------|
|----------------------------|------------------|
|------7---9---/12------10p9-|-10---------------|
|-/7-------------------------|------------------|
|----------------------------|------------------|
|----------------------------|------------------|
|
|  E E   E   E   E  E E  E      E E E E E E E E
|----------------5-----------|----------6-------|
|------------6------6--------|------------6-----|
|--------7------------7------|--------7-----7---|
|----7-------------------7---|------8---------8-|
|--5-------------------------|----8-------------|
|----------------------------|--6---------------|


  C                            Am
   |----3----|
   Q    Q    Q     Q.      E    Q    H.
|----------------------------|------------------------|
|----------------/13------11-|-10---10tr11------------|
|-------7----9---------------|------------------------|
|-/7-------------------------|------------------------|
|----------------------------|------------------------|
|----------------------------|------------------------|
|
|  E  E    E   E   E  E E  E    E E  E     E E E E E
|------------------8---------|---------------5--------|
|---------------------8------|-----------------5------|
|--------------9--------9----|-------------5-----5----|
|---------10--------------10-|-------7-------------7--|
|----10----------------------|----7-------------------|
|--8-------------------------|--5---------------------|


  Bb                              Gm
    ~~~~                          ~
            |--3--|
    Q.      S  S  S  E  E  E  E   H        E E  E  E
|-------------------------------|--------------------|
|-/11------10h11p10----10-------|--------------------|
|-------------------12----12-10-|-9-------10-9-------|
|-------------------------------|--------------12-10-|
|-------------------------------|--------------------|
|-------------------------------|--------------------|
|
|   E  E E  E        E  E  E  E   E E E E  E E  E  E
|--------------------6----------|----------3---------|
|-----------------------6-------|------------3-------|
|-----------7--------------7----|-------3-------3----|
|--------8--------------------8-|-----5------------5-|
|------8------------------------|---5----------------|
|---6---------------------------|-3------------------|


  Dm
   ~~~                   ~
   H.           a  Q     W
|----------------------|------------------|
|----------------------|------------------|
|----------------------|------------------|
|-12-------------------|------------------|
|---------------8h10---|-8----------------|
|----------------------|------------------|
|
|  E  E E E E E    E E   E E E E E E E E
|-----------5----------|---------5--------|
|---------6---6--------|-------6---6------|
|-------7----------7---|-----7-------7----|
|-----7--------------7-|---7-----------7--|
|--5-------------------|-5----------------|
|----------------------|------------------|


  Dm
   |---3---|  |---3---|  |---3---|  |---3---|
   E  E    E  E  E    E  E  E    E  E  E    E
|---------------------------------------------|
|---------------------------------------------|
|---------------------------------------------|
|-----------------------10---------10-12------|
|------------10-12---13----12---13---------13-|
|-10-12---13----------------------------------|
|
|  E    E     E    E     E    E     E    E
|------------------------5--------------------|
|------------------6----------6---------------|
|-------------7---------------------7---------|
|-------7--------------------------------7----|
|--5------------------------------------------|
|---------------------------------------------|


  Bb
   |---3---|  |---3---|  |---3---|  |---3---|
   E  E    E  E  E    E  E  E    E  E  E    E
|---------------------------------------------|
|--------------------10-11------10-11-13---10-|
|------------10-12---------12-----------------|
|-10-12---14----------------------------------|
|---------------------------------------------|
|---------------------------------------------|
|
|  E    E     E    E     E    E     E    E
|------------------------6--------------------|
|-----------------------------6---------------|
|------------------7----------------7---------|
|-------------8--------------------------8----|
|-------8-------------------------------------|
|--6------------------------------------------|


  C                       Am
   ~~~
                                         |---3---|  |---3---|
   H.              Q       H             E  E    E  E  E    E
|-10--------------13----|-12tr13-------/15-13---12------------|
|-----------------------|--------------------------15-13------|
|-----------------------|----------------------------------15-|
|-----------------------|-------------------------------------|
|-----------------------|-------------------------------------|
|-----------------------|-------------------------------------|
|
|  E   E  E E E E  E  E    E     E E E   E    E     E    E
|-------------8---------|----------------5--------------------|
|---------------8-------|---------------------5---------------|
|-----------9------9----|------------5--------------5---------|
|--------10----------10-|----------7---------------------7----|
|-----10----------------|--------7----------------------------|
|--8--------------------|--5----------------------------------|


  Bb                         Gm
    ~~~~
    H.             E     E    E     +E   +E   +E    E     E  S      +S   E
|--------------------------|-----------------------------------------------|
|-----------------------13-|-----------------------------13----------------|
|-/14------------/12b14----|-12b14-(12)-(12)-(12)-/12b14----12b14==(12)r12-|
|--------------------------|-----------------------------------------------|
|--------------------------|-----------------------------------------------|
|--------------------------|-----------------------------------------------|
|
|   E  E E E E E   E     E    E      E    E    E    E     E  E           E
|------------6-------------|------------------------3----------------------|
|--------------6-----------|------------------------------3----------------|
|----------7-------7-------|-------------------3-------------3-------------|
|--------8---------------8-|--------------5------------------------------5-|
|------8-------------------|---------5-------------------------------------|
|---6----------------------|--3--------------------------------------------|


  Dm
   ~~~                      ~
                   |-3--|           |--3---| |--3---|
   H.            E S  S S   H       E  E   E E  E   E
|-------------------------|-----------------------------|
|-------------------------|-----------------------------|
|-10------------10-9h10p9-|-7-------7-------------------|
|-------------------------|-----------10---8-7----------|
|-------------------------|--------------------10---8---|
|-------------------------|-----------------------------|
|
|  E  E E E E E  E E        E E E E E    E   E    E
|-----------5-------------|---------5-------------------|
|---------6---6-----------|-------6------6--------------|
|-------7--------7--------|-----7------------7----------|
|-----7------------7------|---7-------------------7-----|
|--5----------------------|-5---------------------------|
|-------------------------|-----------------------------|


  Dm                 Bb
                      ~~~
   H       H         +H.            Q
|------------------|--------------------|
|------------------|--------------------|
|------------------|--------------------|
|------------------|--------------------|
|-/7-------8-------|-(8)----------------|
|------------------|---------------/5---|
|
|  E E E E E E E E    E  E E E E E  E E
|----------5-------|-----------6--------|
|--------6---6-----|-------------6------|
|------7-------7---|---------7------7---|
|----7-----------7-|-------8----------8-|
|--5---------------|-----8--------------|
|------------------|--6-----------------|


  C                      Am
                         ~~~~~~~~~~~~
  H         Q     E  E   H       +E   Q   E
|----------------------|--------------------|
|----------------------|--------------------|
|----------------------|-------------/7---9-|
|---------------/10--8-|-7-------(7)--------|
|-7---------8----------|--------------------|
|----------------------|--------------------|
|
| E  E  E E E E   E  E   E E E E  E   E E E
|-----------8----------|----------5---------|
|-------------8--------|--------------5-----|
|---------9-------9----|-------5--------5---|
|------10-----------10-|-----7------------7-|
|---10-----------------|---7----------------|
|-8--------------------|-5------------------|


  Bb                      Gm
   ~~                      ~~
   H        +E   Q    E    H        +E    Q   E
|-----------------------|-----------------------|
|-----------------------|-----------------------|
|-10-------(10)-/9---10-|-12-------(12)-/10---9-|
|-----------------------|-----------------------|
|-----------------------|-----------------------|
|-----------------------|-----------------------|
|
|  E E E E   E   E E  E    E E E E   E    E E E
|------------6----------|------------3----------|
|----------------6------|-----------------3-----|
|--------7---------7----|--------3----------3---|
|------8--------------8-|------5--------------5-|
|----8------------------|----5------------------|
|--6--------------------|--3--------------------|


  Dm
                           ~~~
   |--3--|                            |----3----|
   E E   E H.             +H          Q    Q    Q
|-----------------------|---------------------------|
|-----------------------|-----------------18---22---|
|-10-9---7-7------------|-(7)-------/19-------------|
|-----------------------|---------------------------|
|-----------------------|---------------------------|
|-----------------------|---------------------------|
|
|  E   E   E  E E E E E    E  E E E   E E    E    E
|---------------5-------|-------------5-------------|
|-------------6---6-----|---------6-----6-----------|
|----------7--------7---|-------7------------7------|
|------7--------------7-|-----7-------------------7-|
|--5--------------------|--5------------------------|
|-----------------------|---------------------------|


  Dm                       Bb
   ~~~~                                  ~~~~
                   |-3-|
   H..             S S S    S      +S   +Q     +E   E  E  E  E
|-22-------------------x-|-24b25==(24)-(24)---(24)-24r24-24-24-|
|--------------------x---|-------------------------------------|
|------------------x-----|-------------------------------------|
|------------------------|-------------------------------------|
|------------------------|-------------------------------------|
|------------------------|-------------------------------------|
|
|  E   E E E E E E E        E            E  E   E   E  E  E  E
|------------5-----------|--------------------------6----------|
|----------6---6---------|-----------------------------6-------|
|--------7-------7-------|----------------------7---------7----|
|------7-----------7-----|------------------8----------------8-|
|--5---------------------|---------------8---------------------|
|------------------------|--6----------------------------------|


  C                         Am
                             ~~
   E  E  E  E  E  E  E  E    H        +E   E  E  E
|-24s22-22-22-22s20-20-20-|-20-------(20)-20-20-20--|
|-------------------------|-------------------------|
|-------------------------|-------------------------|
|-------------------------|-------------------------|
|-------------------------|-------------------------|
|-------------------------|-------------------------|
|
|  E  E  E  E  E  E  E  E    E E E E   E   E  E  E
|--------------8----------|------------5------------|
|-----------------8-------|----------------5--------|
|-----------9--------9----|--------5----------5-----|
|-------10-------------10-|------7---------------7--|
|----10-------------------|----7--------------------|
|--8----------------------|--5----------------------|


  Bb                        Gm
   E  E  E  E  E  E  E  E    E  E  E  E  E  E  E  E
|-20s15-15-15-15s17-17-17-|-17s13-13-13-13-12-10----|
|-------------------------|----------------------13-|
|-------------------------|-------------------------|
|-------------------------|-------------------------|
|-------------------------|-------------------------|
|-------------------------|-------------------------|
|
|  E  E  E  E  E  E  E  E    E  E  E  E  E  E  E  E
|--------------6----------|--------------3----------|
|-----------------6-------|-----------------3-------|
|-----------7--------7----|-----------3--------3----|
|--------8--------------8-|--------5--------------5-|
|-----8-------------------|-----5-------------------|
|--6----------------------|--3----------------------|


     Dm
           ~~                  ~
                      |-3--|
   a  Q    H        E S  S S   W
|----------------------------|------------------|
|----------------------------|------------------|
|-10-12---10-------10-9h10p9-|-7----------------|
|----------------------------|------------------|
|----------------------------|------------------|
|----------------------------|------------------|
|
|     E E  E E E E  E E        E E E E E E E E
|--------------5-------------|---------5--------|
|------------6---6-----------|-------6---6------|
|----------7--------7--------|-----7-------7----|
|-------7-------------7------|---7-----------7--|
|-----5----------------------|-5----------------|
|----------------------------|------------------|


   Harmony Riff/Outro
    Dm                   Bb
    Gtr IV
                                   |--3--|
     H        Q    Q       Q.      S  S  S  E  E  E  E
||---------------------|-/22------20h22p20-18----------|
||o-18-------20---22---|----------------------22-20-18-|
||---------------------|-------------------------------|
||---------------------|-------------------------------|
||o--------------------|-------------------------------|
||---------------------|-------------------------------|
|
|   Gtr V
|    ~~                    ~~~~
|                                  |--3--|
|    H        Q    Q       Q.      S  S  S  E  E  E  E
||---------------------|-/18------17h18p17-15----------|
||o-15-------17---18---|----------------------18-17-15-|
||---------------------|-------------------------------|
||---------------------|-------------------------------|
||o--------------------|-------------------------------|
||---------------------|-------------------------------|
|
|   Gtrs I, II
|    E E E E  E E  E E     E  E E  E        E  E  E  E
||------------5--------|--------------------6----------|
||o--------6----6------|-----------------------6-------|
||-------7---------7---|-----------7--------------7----|
||-----7-------------7-|--------8--------------------8-|
||o--5-----------------|------8------------------------|
||---------------------|---6---------------------------|


  C                       Am
                                    |--3--|
   H          Q    Q        Q.      S  S  S  E  E  E  E
|-----------------------|-/20------18h20p18-17-----------|
|-17---------18---20----|----------------------20-18-17--|
|-----------------------|--------------------------------|
|-----------------------|--------------------------------|
|-----------------------|--------------------------------|
|-----------------------|--------------------------------|
|
|  ~~                       ~~~~
|                                   |--3--|
|  H          Q    Q        Q.      S  S  S  E  E  E  E
|-----------------------|-/17------15h17p15--------------|
|------------15---17----|-------------------18-17-15-----|
|-17--------------------|----------------------------17--|
|-----------------------|--------------------------------|
|-----------------------|--------------------------------|
|-----------------------|--------------------------------|
|
|  E  E  E E  E E  E  E     E  E E  E        E  E  E  E
|-------------8---------|--------------------5-----------|
|---------------8-------|-----------------------5--------|
|----------9-------9----|-----------5--------------5-----|
|-------10-----------10-|--------7--------------------7--|
|----10-----------------|------7-------------------------|
|--8--------------------|---5----------------------------|


  Bb                   Gm
                                 |--3--|
   H        Q    Q       Q.      S  S  S  E  E  E  E
|--------------------|--18------17h18p17-15----------|
|-15-------17---18---|----------------------18-17-15-|
|--------------------|-------------------------------|
|--------------------|-------------------------------|
|--------------------|-------------------------------|
|--------------------|-------------------------------|
|
|  ~~                    ~~~~
|                                |--3--|
|  H        Q    Q       Q.      S  S  S  E  E  E  E
|--------------------|-------------------------------|
|---------------15---|-/20------18h20p18-17----------|
|-15-------17--------|----------------------19-17-15-|
|--------------------|-------------------------------|
|--------------------|-------------------------------|
|--------------------|-------------------------------|
|
|  E E E E  E E  E E     E  E E  E        E  E  E  E
|-----------6--------|--------------------3----------|
|-------------6------|-----------------------3-------|
|--------7-------7---|-----------3--------------3----|
|------8-----------8-|--------5--------------------5-|
|----8---------------|------5------------------------|
|--6-----------------|---3---------------------------|


   W                  +W
|------------------|-----------------------||
|-15---------------|-(15)-----------------o||
|------------------|-----------------------||
|------------------|-----------------------||
|------------------|----------------------o||
|------------------|-----------------------||
|
|  ~~~~~~~~~~~~~~~~~~~~~~~
|  W                  +W
|------------------|-----------------------||
|------------------|----------------------o||
|-14---------------|-(14)------------------||
|------------------|-----------------------||
|------------------|----------------------o||
|------------------|-----------------------||
|
|  E E E E E E E E     E  E E E E E E E
|----------5-------|------------5----------||
|--------6---6-----|----------6---6-------o||
|------7-------7---|--------7-------7------||
|----7-----------7-|------7-----------7----||
|--5---------------|---5------------------o||
|------------------|-----------------------||




--------------------------------------------------------------------------------


Duration Legend
---------------
W - whole; H - half; Q - quarter; E - 8th; S - 16th; T - 32nd; X - 64th; a - acciaccatura
+ - note tied to previous; . - note dotted; .. - note double dotted
Uncapitalized letters represent notes that are staccato (1/2 duration)
Irregular groupings are notated above the duration line
Duration letters will always appear directly above the note/fret number it represents the
duration for.  Duration letters with no fret number below them represent rests.  Multi-
bar rests are notated in the form Wxn, where n is the number of bars to rest for.  Low
melody durations appear below the staff

Tablature Legend
----------------
 h   - hammer-on
 p   - pull-off
 b   - bend
 pb  - pre-bend
 r   - bend release (if no number after the r, then release immediately)
 /\  - slide into or out of (from/to "nowhere")
 s   - legato slide
 S   - shift slide
 - natural harmonic
[n]  - artificial harmonic
n(n) - tapped harmonic
 ~   - vibrato
 tr  - trill
 T   - tap
 TP  - trem. picking
 PM  - palm muting
\n/  - tremolo bar dip; n = amount to dip
 \n  - tremolo bar down
 n/  - tremolo bar up
/n\  - tremolo bar inverted dip
 =   - hold bend; also acts as connecting device for hammers/pulls
 <> - volume swell (louder/softer)
 x   - on rhythm slash represents muted slash
 o   - on rhythm slash represents single note slash

Misc Legend
-----------
 |  - bar
||  - double bar
||o - repeat start
o|| - repeat end
*|  - double bar (ending)
 :  - bar (freetime)
 $  - Segno
 &  - Coda
Tempo markers -  = BPM(8/16=s8/s16), where s8 = swing 8ths, s16 = swing 16ths

Tap to rate this tab
 
# A B C D E F G H I J K L M N O P Q R S T U V W X Y Z