Guitaretab - guitar tabs
Song name
# A B C D E F G H I J K L M N O P Q R S T U V W X Y Z

Armchair Cynics - Coalmine tab

Artist : Armchair Cynics
Song   : Coalmine
Album  : Killing the Romance
Tuning : Standard Capo 1

It's been a tough year for all it's worth...
e|--0----0----0----0--0--0----0----0----0---------| x2
B|--0----0----0----8-10--8----0----0----0---------|
G|--0----7----5----0--0--0----7----5----2---------|
D|--9----7----5----9--9--9----7----5----2---------| 
A|--7----5----3----7--7--7----5----3----0---------|
E|--0--------------0--0--0------------------------| (part 1)

Itís high time you find diamonds in this coalmine called me...
e|--0----0-------2-----------0----0--0--0--0-------2---------------|
B|--0----1-------3------0----0----1--0--1--0-------0------0--------|
G|--5----2-------0------0----5----2--2--2--2-------0------0--------|
D|--5----2----2--2---4--5----5----2--2--2--2----2--2---4--5--------| 
A|--3----0----2--2---4--5----3----0--0--0--0----2--2---4--5--------|
E|------------0--0---2--3-----------------------0--0---2--3--------| (part 2)

e|-----2-------------|
B|-----3------0------|
G|-----0------0------|
D|--2--2---4--5------| 
A|--2--2---4--5------|
E|--0--0---2--3------|
 

e|--------10-----7----------------10-----7-----------7---8---7-----| x2
B|------------8-----------------------8-----8-----8----------------|
G|------0-----------7--7-------0---------------7-------------------|
D|-----------------------------------------------------------------| 
A|--5h7-------------------5h7--------------------------------------|
E|-----------------------------------------------------------------| (part 3)
[ Tab from: http://www.guitaretab.com/a/armchair-cynics/69695.html ]
e|--------------0---------------0----------------------------------|
B|------3---------3-----3----------3-----3-------------------------|
G|----0---0---0-------0---0---0--------0---0---0-------------------|
D|--4-------4-------4-------4--------4-------4---4----5------------| 
A|-------------------------------------------------5--5--2b3-0-----|
E|----------------------------------------------------3--------3---| (part 4)

Thereís a tattoo on your shoulder that reminds me...
e|--0----0----0---------0----0----0-----------|
B|--0----0----0----3----0----0----0-----------|
G|--2----5----0----2----2----5----2-----------|
D|--2----5----2----0----2----5----3-----------| 
A|--0----3----2----0----0----3----3-----------|
E|------------0----2--------------1-----------| (part 5)

Here I am washed up on your shore once again...
e|-------0-------0-------0-------------------0-------0-------------|
B|-------0-------0-------0-----------0-------0-------0---0---------|
G|-------5-------2-------0-----------0-------5-------2---0---------|
D|----5--5----2--2-------2-----------5----5--5----2--2---4---------| 
A|--3----3--0----0----2--2--------5--5--3----3--0----0---2---------|
E|------------------0----0---2--3----3-------------------0---------| (part 6)

e|--0----0----0------------0---------0---------------| x2
B|--0----1----0-------0----0----3----0-------0-------|
G|--5----2----0-------0----5----2----0-------0-------|
D|--5----2----2----4--5----5----0----2----4--5-------| 
A|--3----0----2----4--5----3----0----2----4--5-------|
E|------------0----2--3---------2----0----2--3-------| (part 7)

e|-----------------------------0--0-------| 
B|-----------------------------0--0-------|
G|-----------------------------5--2-------|
D|--2--4--5--2--4--5--2--4--5--5--2-------| 
A|--2--4--5--2--4--5--2--4--5--3--0-------|
E|--0--2--3--0--2--3--0--2--3-------------| (part 8)

Song Order 1.(part 1)
           2.(part 2)
           3.(part 1)/(part 3)
           4.(part 2)
           5.(part 4)
           6.(part 5)
           7.(part 6)
           8.(part 7)
           9.(part 4)/(part 8)
           
Related for Coalmine tab