Guitaretab - guitar tabs
Song name
# A B C D E F G H I J K L M N O P Q R S T U V W X Y Z

Armchair Cynics - Surprise Ending tab

Band:Armchair Cynics
Song:Surprise Ending
Website:www.armchaircynics.com
Tuning:Drop D w/capo 1

e|--9--7-----9--------12---------12--------------|
B|--------7----10--7------10--7-----7--5--7------|
G|-----------------------------------------------|
D|-----------------------------------------------| 
A|-----------------------------------------------|
D|-----------------------------------------------| (part 1)

e|-----------------------------------------------|
B|-----------------------------------------------|
G|--4-----4---7---7---4---6h7---6----------------|
D|--4--4--4---7---5---2---4h5---4----------------| 
A|--2--0--2---5---5---2---4h5---4----------------|
D|-----0--------- 5---2---4h5---4----------------| (part 2)
[ Tab from: http://www.guitaretab.com/a/armchair-cynics/69826.html ]
Cause it feels like itís a movie about losing...
e|----------------------------------------| x2
B|------3-------3--------3-------3--------|
G|--7---2---4---2----7---2---4---2--------|
D|--5---0---4---0----5---0---4---0--------|
A|--5---0---2---0----5---0---2---0--------|
D|--5---0-------0----5---0-------0--------| (part 3)

e|-----------------|
B|----------3------|
G|--4---6---2------|
D|--4---4---0------|
A|--2---4---0------|
D|------4---0------| 

Solo
e|--10-10-9-9-7-7-------10-10-9-9-7-7-14-14-10-10-9-9-7-7-12-12----|
B|----------------10-10--------------------------------------------|
G|-----------------------------------------------------------------|
D|-----------------------------------------------------------------|
A|-----------------------------------------------------------------|
D|-----------------------------------------------------------------| (part 4)

e|--10-10-9-9-7-7-------10-10-9-9-7-7-14-------|
B|----------------7-7--------------------------|
G|---------------------------------------------|
D|---------------------------------------------|
A|---------------------------------------------|
D|---------------------------------------------| 

Song Order 1.(part 1)
           2.(part 1)/(part 2)
           3.(part 3)
           4.(part 2)
           5.(part 3)
           6.(part 3)/(part 4)
Related for Surprise Ending tab