Armin Van Buuren - This Light Between Us tab

This is the tab for "This Light Between Us" by Armin Van Buuren
feat. Christian Burns. There is a guitar cover of the song done
by Eller Van Buuren but this is not exactly that one but the
chords are pretty much the same.So hope you enjoy!!!:)



e---------------------------------------------------------4-|
b---------------------------------------------------------4-|
g------------8-----------------------4---------6----------5-|
d------------8-----------------------4---------6----------6-|
a------------6-----------------------2---------4----------6-|
e---------------------------------------------------------4-|
  can you see....                    this light between us..

e-----------------------------------------------------------|
b-----------------------------------------------------------|
g-------------------4----------------6----------------------|
d-------------------4----------------6----------------------|
a-------------------2----------------4----------------------|
e-----------------------------------------------------------|
  keeps me breathing through the storm........

e----------------------6------------------------------------|
b----------------------6------------------------------------|
g--8-------------------7------------------------------------|
d--8-------------------8------------------------------------|
a--6-------------------8------------------------------------|
e----------------------6------------------------------------|
  ahead above the crowd.............

e---------------------------------------------------------4-|
b---------------------------------------------------------4-|
g------------8-----------------------4---------6----------5-|
d------------8-----------------------4---------6----------6-|
a------------6-----------------------2---------4----------6-|
e---------------------------------------------------------4-|
  can you see....                    this light between us..

e-----------------------------------------------------------|
b-----------------------------------------------------------|
g-------------------4----------------6----------------------|
d-------------------4----------------6----------------------|
a-------------------2----------------4----------------------|
e-----------------------------------------------------------|
  so come a little bit closer now

e---------------------------------6-------------------------|
b---------------------------------6-------------------------|
g----------------------8----------7-------------------------|
d----------------------8----------8-------------------------|
a----------------------6----------8-------------------------|
e---------------------------------6-------------------------|
  is in our eyes......


thanks!!:)
RP.
Tap to rate this tab
 
# A B C D E F G H I J K L M N O P Q R S T U V W X Y Z