Song name
# A B C D E F G H I J K L M N O P Q R S T U V W X Y Z

Armor For Sleep - Stand In The Spotlight tab

-------------------------------------------------------------------------------
			     Stand in the Spotlight - Armor for Sleep
-------------------------------------------------------------------------------
Tabbed by: Red Exodus
Email: Kristoff791@hotmail.com

Tuning:

This is my first tab so don't be too harsh, I know it's rough around the edges so help 
find the mistakes.
I'll be updating this over time to get it closer to perfection.
You can email me if you see the need, title the e-mail as Tab or anything along those lines.

Listen to the music in order to figure out how many times you need to strum.


Intro/verse


e|--------------------------------------------------------|
B|--------------------------------------------------------|
G|--------------------------------------------------------|
D|---------7-------------7------------7-------------7-----|
A|--5--5-----5--5--5-5-----5---4--4-----4--4--4-4-----4---|
D|--------------------------------------------------------|  x4

Pre-chorus

Lead
e|---------------------------------------------|
B|---------------------------------------------|
G|--11---10----xxx-7--xxx-9--xxx-11--xxx--14---|
D|---x----x----xxx-x--xxx-x--xxx--x--xxx---x---|
A|---9----8----xxx-5--xxx-7--xxx--9--xxx--12---|
D|---------------------------------------------|


Rhythm
e|---------------------------------------------|
B|---------------------------------------------|
G|---------------------------------------------|
D|--9---8--------xxx2--xxx4--xxx6--xxx7--------|
A|--9---8--------xxx2--xxx4--xxx6--xxx7--------|
D|--9---8--------xxx2--xxx4--xxx6--xxx7--------|


Chorus

Lead
e|--------------------------------------|
B|--------------------------------------|
G|--7---6---7---6---7---6---7-----------|
D|--x---x---x---x---x---x---x-----------|
A|--5---4---5---4---5---4---5-----------|
D|--------------------------------------|


Rhythm
e|--------------------------------------|
B|--------------------------------------|
G|--------------------------------------|
D|--7---4---7---4---7---4---9---5-------|
A|--7---4---7---4---7---4---9---5-------|
D|--7---4---7---4---7---4---9---5-------|


[Verse]
[Pre-chorus]
[chorus]

I'm *really* not too sure about this part so bare with me.

Breakdown
[Verse/intro]
Then play this
e|--------------------------------------|
B|--------------------------------------|
G|--11---9---6----11---12---------------|
D|---x---x---x-----x----x---------------|
A|---9---7---4-----9---10---------------|
D|--------------------------------------|

There's a variation towards the end but I can't seem to figure out, any help would be awesome

[Chorus]

And end on
D|-0-
A|-0-
D|-0-

There you go, enjoy :)

| /  slide up
| \  slide down
| h  hammer-on
| p  pull-off
| ~  vibrato
| +  harmonic
| x  Mute note
===============================================================================
Tap to rate this tab
# A B C D E F G H I J K L M N O P Q R S T U V W X Y Z