Song name
# A B C D E F G H I J K L M N O P Q R S T U V W X Y Z

Armor For Sleep - Slip Like Space tab

Help us improve GuitareTab! Take a short survey!
Tabbed by:Jonathan Correa
Email:jcorrea477@yahoo.com

Tuning:drop d
Hey this is my first tab if there's any mistakes or any sudgestions send me them at my 
other than that i hope this help cuz i don't know how to work that guitar pro thing so I 
to post this up.  peace people, Please rate
e|---------------------------------------------------------------------------|
B|---------------------------------------------------------------------------|
G|-------------------5-------------------------------------------------------|
D|---------8-----------8---7-----8------x2-----------------------------------|
A|----5---------5------------5-----5-----------------------------------------|
D|-5----5-----5---5------5-----5---------------------------------------------|

e|---------------------------------------------------------------------------|
B|----------6-----------------------6----------------------------------------|
G|----------------------7--------------(7b)-----------7----------------------|
D|----5-----------5-----------5-----------------5----------------------------|
A|-3-----3-----3-----3-----3-----3-----------3-----3-------------------------|
E|---------------------------------------------------------------------------|
Related for Slip Like Space tab