Song name
# A B C D E F G H I J K L M N O P Q R S T U V W X Y Z

Armor For Sleep - End Of The World tab

----------------------------------------------------------------------------
                  "End Of The World" by Armor For Sleep
----------------------------------------------------------------------------
Tabbed by:- 	Sexy_Rexxy 
Email:- 	Sexy_raptor_pants_pirate_guy@hotmail.com

Tuning:- 	Drop D (DADGBe)

(Riff A)
e|---0---0---0---0------0----------0---0---0---0-----0---------------------|
B|-9---9---9---9---9/10---10\9-5-8---8---8---8---8\7---8\7-5---------------|
G|-------------------------------------------------------------------------|
D|-------------------------------------------------------------------------|
A|-------------------------------------------------------------------------|
D|-------------------------------------------------------------------------|


(Riff B)
e|---0---0---0---0------0----------0---0---0---0-------0-------0----0----------|
B|-9---9---9---9---9/10---10\9-5-8---8---8---8---8/12---12\10----10---10\9-----|
G|-----------------------------------------------------------------------------|
D|-----------------------------------------------------------------------------|
A|-----------------------------------------------------------------------------|
D|-----------------------------------------------------------------------------|


(Riff C)
e|---0---0---0---0------0----------0---0---0---0-|
B|-9---9---9---9---9/10---10\9-5-8---8---8---8---|
G|-----------------------------------------------|
D|-----------------------------------------------|
A|-----------------------------------------------|
D|-----------------------------------------------|


(Riff D)
e|-----------------|
B|-----------------|
G|-----------------|
D|-0-0-x-0-x-0-0-0-|
A|-0-0-x-0-x-0-0-0-|
D|-0-0-x-0-x-0-0-0-|


(Riff E)
e|-19-19----------------19-19----------------15-15----------------15-15------------------|
B|-------17-17-17b18r17-------17-17-17b18r17-------12-12-13-13-13~-------13-13-15-15-15~-|
G|---------------------------------------------------------------------------------------|
D|---------------------------------------------------------------------------------------|
A|---------------------------------------------------------------------------------------|
D|---------------------------------------------------------------------------------------|


(Riff F)
e|-----------------------|
B|-----------------------|
G|-7-(x8)-2-(x8)-4-(x16)-|
D|-5------0------2-------|
A|-5------0------2-------|
D|-5------0------2-------|


(Riff G)
e|-----------------------|
B|-----------------------|
G|-7-(x8)-2-(x8)-4-(x16)-|
D|-5------0------2-------|
A|-5------0------2-------|
D|-5------0------2-------|

(Riff G)
e|-------------|
B|-8~-------9~-|
G|-------------|
D|-------------|
A|-------------|
D|-------------|

(Riff H)
e|---19-|
B|-19---|
G|------|
D|------|
A|------|
D|------| (played quickly, and hard to hear, it's not really neccisary)


(Riff I)
e|-----------------------|
B|-----------------------|
G|-----------------------|
D|-2-(x8)-5-(x8)-7-(x16)-|
A|-2------5------7-------|
D|-2------5------7-------|


(Riff J)
e|---0---0---0---0------0------|
B|-9---9---9---9---9/10---10\9-|
G|-----------------------------|
D|-----------------------------|
A|-----------------------------|
D|-----------------------------|

(Riff K)
e|----------------------------|
B|----------------------------|
G|----------------------------|
D|-5-(x8)-7-(x8)-2-(x8)-0-(x8)|
A|-5------7------2------0-----|
D|-5------7------2------0-----|

I'll leave the layout of the song to you, but all the riffs you need are there.

Any corrections or suggestions, email me.

===============================================================================
| /  	slide up
| \  	slide down
| XbXrX	bend and release
| h  	hammer-on
| p  	pull-off
| ~  	vibrato
| +  	harmonic
| x  	Mute note
===============================================================================
Tap to rate this tab
 
# A B C D E F G H I J K L M N O P Q R S T U V W X Y Z