Song name
# A B C D E F G H I J K L M N O P Q R S T U V W X Y Z

Armor For Sleep - Hold The Door Acoustic tab

Help us improve GuitareTab! Take a short survey!
VERSE/INTRO:
Chords

e  ----------------|
B  ----------------|
G  6----6----6-----|
D  6----6----6-----|    X3
A  4----0----4-----|
E  X----x----4-----|

e  ------------|
B  ------------|
G  6----6------|
D  6----6----2-|
A  4----0----2-|
E  X----x----2-|

e  ----------------|
B  ----------------|
G  6----6----6-----|
D  6----6----6-----|    X2
A  4----0----4-----|
E  X----x----4-----|

INTERLUDE:
e------------------------------------------------------------------------|
b------------------------------------------------------------------------|
g--------0---------------------------------0-----------------------------|
d------6-----6-------4--6-6b-6-4-6-------6-----6-------6-------------2---|
a-4-4------------0-0----------------4-4--------------7---7-----4---4-----|
D--------------------------------------------------7---------4---4-------|

VERSE
e  ------------|
B  ------------|
G  6----6----6-|
D  6----6----6-|
A  4----0----4-|
E  X----x----4-|

e  ------------|
B  ------------|
G  6----6------|
D  6----6----2-|
A  4----0----2-|
E  X----x----2-|

e  ----------------|
B  ----------------|
G  6----6----6-----|
D  6----6----6-----|    X2
A  4----0----4-----|
E  X----x----4-----|

CHORUS:X2
Chords
e  ------------|
B  ------------|
G  9----9------|
D  9----9----7-|
A  7----6----7-|
E  x----x----7-|

Strumming is here for this part
e ------------------------------------------------|
B ------------------------------------------------|
G 9-9-9-9--11-11-11-11--13-13-13-13--14-14-14-14--|
D x-x-x-x--x--x--x--x---x--x--x--x---x--x--x--x---|
A 7-7-7-7--9--9--9--9---11-11-11-11--12-12-12-12--|
D ------------------------------------------------|

INTERLUDE:
E------------------------------------------------------------------------|
B------------------------------------------------------------------------|
G--------0---------------------------------0-----------------------------|
D------6-----6-------4--6-6b-6-4-6-------6-----6-------6-------------2---|
A-4-4------------0-0----------------4-4--------------7---7-----4---4-----|
D--------------------------------------------------7---------4---4-------|

VERSE
e  ------------|
B  ------------|
G  6----6----6-|
D  6----6----6-|
A  4----0----4-|
E  X----x----4-|

e  ------------|
B  ------------|
G  6----6------|
D  6----6----2-|
A  4----0----2-|
E  X----x----2-|

e  --------------|
B  --------------|
G  6----6----6---|
D  6----6----6---|  X2
A  4----0----4---|
E  X----x----4---|

CHORUS:
Chords
e  ------------|
B  ------------|
G  9----9------|
D  9----9----7-|
A  7----6----7-|
E  x----x----7-|

Strumming is here for this part
e ------------------------------------------------|
B ------------------------------------------------|
G 9-9-9-9--11-11-11-11--13-13-13-13--14-14-14-14--|
D x-x-x-x--x--x--x--x---x--x--x--x---x--x--x--x---|
A 7-7-7-7--9--9--9--9---11-11-11-11--12-12-12-12--|
D ------------------------------------------------|

e  ------------|
B  ------------|
G  9----9------|
D  9----9----7-|
A  7----6----7-|
E  x----x----7-|
Related for Hold The Door Acoustic tab