Song name
# A B C D E F G H I J K L M N O P Q R S T U V W X Y Z

Armor For Sleep - My Saving Grace tab

Tabbed by: Joshua Garcia (halofreak 731@aol.com)

Tabs For the song: My Saving Grace by Armor For Sleep
Please rate and let me know if you have any corrections. Thank you.

This song is fairly easy, its basically just the same notes spread 
throughout the whole song. And, once again, since no one else has tabbed 
this song, I decided to be the first. It goes like this.

Tuning: Standard


Intro
Guitar 1:
E||------12-12-11b12r11---------------|------12-12-11b12r11---------------|
B||--9-9------------------------------|--9-9------------------------------|
G||------------------------9---8------|------------------------9---8---9--| x3
D||-----------------------------------|-----------------------------------|
A||-----------------------------------|-----------------------------------|
E||-----------------------------------|-----------------------------------|


Pre-Chorus
Guitar 1:
E||----------------------------------------------|---0-0-0-0-0-0---00---00----|
B||--12-12-12-9-9-9-12-12-12-9-9-9-12-12-9-9--x3-|---7-7-7-7-7-7---77---77----|
G||--9--9--9--9-9-9-9--9--9--9-9-9-9--9--9-9-----|---9-9-9-9-9-9---88---88----|
D||----------------------------------------------|----------------------------|
A||----------------------------------------------|----------------------------|
E||----------------------------------------------|----------------------------|


Chorus
Guitar 1:
E||-----12-12-11b12r11-----------------------|-----12-12-11b12r11-------------------------------|
B||-9-9----------------12--------------------|-9-9----------------12----------------------------|
G||-----------------------11--9-9-99-8-------|-----------------------11--99999-88--8-8-8-8b9r8--| x2
D||------------------------------------77-7--|--------------------------------------------------|
A||------------------------------------------|--------------------------------------------------|
E||------------------------------------------|--------------------------------------------------|


Bridge
Guitar 1:
E||------12-12-11b12r11------16-----16---14----14-----11b12r11b12r11b12r11---|
B||--9-9-------------------12---1212---12--1212---12-------------------------|
G||--------------------------------------------------------------------------|
D||--------------------------------------------------------------------------|
A||--------------------------------------------------------------------------|
E||--------------------------------------------------------------------------|


E||---9------9/11---------|
B||-----12---------12-----|
G||-9-----------------11--|
D||-----------------------|
A||-----------------------|
E||-----------------------|


Guitar 2:
E||-----------------------|
B||--7/9------------------|
G||-------9----8----------|
D||-----------------------|
A||-----------------------|
E||-----------------------|


Verse
Guitar 1:
E||------12-12-11b12r11---------------|------12-12-11b12r11---------------|
B||--9-9------------------------------|--9-9------------------------------|
G||------------------------9---8------|------------------------9---8---9--| x2
D||-----------------------------------|-----------------------------------|
A||-----------------------------------|-----------------------------------|
E||-----------------------------------|-----------------------------------|


Pre-Chorus
Guitar 1:
E||------------------------------------------------|---0-0-0-0-0-0---00---00----|
B||-xx-12-12-12-9-9-9-12-12-12-9-9-9-12-12-9-9--x3-|---7-7-7-7-7-7---77---77----|
G||-xx-9--9--9--9-9-9-9--9--9--9-9-9-9--9--9-9-----|---9-9-9-9-9-9---88---88----|
D||-xx---------------------------------------------|----------------------------|
A||------------------------------------------------|----------------------------|
E||------------------------------------------------|----------------------------|


Chorus
Guitar 1:
E||-----12-12-11b12r11-----------------------|-----12-12-11b12r11-------------------------------|
B||-9-9----------------12--------------------|-9-9----------------12----------------------------|
G||-----------------------11--9-9-99-8-------|-----------------------11--99999-88--8-8-8-8b9r8--| x2
D||------------------------------------77-7--|--------------------------------------------------|
A||------------------------------------------|--------------------------------------------------|
E||------------------------------------------|--------------------------------------------------|


Breakdown:
Guitar 2:
E||--------------------------------------------------------|
B||--------------------------------------------------------|
G||--------------------------------------------------------|
D||-4-4--4-4-4-444-4--4-4-4-44-6-6--6-6-6-666-6--6-6-6-66--|
A||-4-4--4-4-4-444-4--4-4-4-44-6-6--6-6-6-666-6--6-6-6-66--|
E||-2-2--2-2-2-222-2--2-2-2-22-4-4--4-4-4-444-4--4-4-4-44--|


E||--------------------------------------------------------|
B||--------------------------------------------------------|
G||--------------------------------------------------------| x3
D||-7-7--7-7-7-777-7--7-7-7-77-9-9--9-9-9-999-9--9-9-9-99--|
A||-7-7--7-7-7-777-7--7-7-7-77-9-9--9-9-9-999-9--9-9-9-99--|
E||-5-5--5-5-5-555-5--5-5-5-55-7-7--7-7-7-777-7--7-7-7-77--|


Guitar 1:
E||--------------------------------------------------------------------------------------|
B||--7---7----7----7---7----7----9---9----9----9---9----9----7---7----7----7---7----7----|
G||----9----9---9----9----9---9----9----9---9----9----9---9----9----9---9----9----9---9--|
D||--------------------------------------------------------------------------------------|
A||--------------------------------------------------------------------------------------|
E||--------------------------------------------------------------------------------------|


E||-14-14-14---14-14-14---12-12-12---11-11-11---|
B||----------9----------9----------9------------|
G||---------------------------------------------| x2
D||---------------------------------------------|
A||---------------------------------------------|
E||---------------------------------------------|


Chorus
Guitar 1:
E||------------------------------------------|-----12-12-11b12r11-------------------------------|
B||------------------------------------------|-9-9----------------12----------------------------|
G||---------------------------9-9-99-8-------|-----------------------11--99999-88--8-8-8-8b9r8--|
D||------------------------------------77-7--|--------------------------------------------------|
A||------------------------------------------|--------------------------------------------------|
E||------------------------------------------|--------------------------------------------------|


E||-----12-12-11b12r11-----------------------|-----12-12-11b12r11-------------------------------|
B||-9-9----------------12--------------------|-9-9----------------12----------------------------|
G||-----------------------11--9-9-99-8-------|-----------------------11--99999-88--8-8-8-8b9r8--|
D||------------------------------------77-7--|--------------------------------------------------|
A||------------------------------------------|--------------------------------------------------|
E||------------------------------------------|--------------------------------------------------|


Outro
Guitar 1:
E||-----12-12-11b12r11-----------------------|-----12-12-11b12r11-------------------------------|
B||-9-9----------------12--------------------|-9-9----------------12----------------------------|
G||-----------------------11--9-9-99-8-------|-----------------------11--99999-88--8-8-8-8b9r8--| x2
D||------------------------------------77-7--|--------------------------------------------------|
A||------------------------------------------|--------------------------------------------------|
E||------------------------------------------|--------------------------------------------------|


Guitar 1/2:
E||-----|
B||-----|
G||-----|
D||--2--|
A||--2--|
E||--0--|



Tablature Legend
----------------
 h   - hammer-on
 p   - pull-off
 b   - bend
 r   - release bend
 *   - pinch harmonic
 x   - mute note
 .   - palm mute
 /   - slide down
 \   - slide up
Tap to rate this tab
 
# A B C D E F G H I J K L M N O P Q R S T U V W X Y Z