Guitaretab - guitar tabs
Song name
# A B C D E F G H I J K L M N O P Q R S T U V W X Y Z

Armor For Sleep - Chemicals tab

Tabbed by: Joshua Garcia (halofreak731@aol.com)

Tabs For the song: Chemicals by Armor For Sleep
Please rate and let me know if you have any corrections. Thank you.

Tuning: Drop D (D A D G B E)


Intro
E||----------------------------------------------|
B||----------------------------------------------|
G||-----------------777-7777---------------------|
D||-(9/4)-444-4444--777-7777--777-7777-777-7777--|
A||-(9/4)-444-4444--555-5555--777-7777-777-7777--|
D||-(9/4)-444-4444------------777-7777-777-7777--|


E||----------------------------------------|
B||----------------------------------------|
G||------------777-7777--------------------|
D||--444-4444--777-7777--777-777777777777--|
A||--444-4444--555-5555--777-777777777777--|
D||--444-4444------------777-777777777777--|



Verse
E||-9-9-9-9-9-9--9999--7-7-7-7-7-7-7777--9-9-9-9-9-9-9999--5-5-5-5-77777777---|
B||-7-7-7-7-7-7--7777--7-7-7-7-7-7-7777--7-7-7-7-7-7-7777--7-7-7-7-55555555---|
G||---------------------------------------------------------------------------|
D||---------------------------------------------------------------------------|
A||---------------------------------------------------------------------------|
D||---------------------------------------------------------------------------|


E||-9-9-9-9-9-9--9999--7-7-7-7-7-7-7777--9-9-9-9-9-9-9999--5-5-5-5-5-5-5555---|
B||-7-7-7-7-7-7--7777--7-7-7-7-7-7-7777--7-7-7-7-7-7-7777--7-7-7-7-7-7-7777---|
G||---------------------------------------------------------------------------|
D||---------------------------------------------------------------------------|
A||---------------------------------------------------------------------------|
D||---------------------------------------------------------------------------|



Pre-Chorus
E||-9h10-9-10-9-10-9-10-9-10-9-10-9-10-9-10-9\-|
B||--------------------------------------------|
G||--------------------------------------------|
D||--------------------------------------------|
A||--------------------------------------------|
D||--------------------------------------------|


E||-5-7-5-7-5-7-5-7-4-5-4-5-4-5-4-5-|
B||---------------------------------|
G||---------------------------------|
D||---------------------------------|
A||---------------------------------|
D||---------------------------------|

[ Tab from: http://www.guitaretab.com/a/armor-for-sleep/192535.html ]
E||-9-10-9-10-9-10-9-10-9-10-9-10-9-10-9-10---|
B||-------------------------------------------|
G||-------------------------------------------|
D||-------------------------------------------|
A||-------------------------------------------|
D||-------------------------------------------|


E||------------------|
B||------------------|
G||------------------|
D||-4444444422222222-|
A||-4444444422222222-|
D||-4444444422222222-|



Chorus
E||----------------------------------------|
B||----------------------------------------|
G||------------777-7777--------------------| x3
D||--444-4444--777-7777--777-777777777777--|
A||--444-4444--555-5555--777-777777777777--|
D||--444-4444------------777-777777777777--|


E||------------------------------------------------------------------|
B||------------------------------------------------------------------|
G||------------------------------------------------------------------|
D||-9-9-9-9-9-9-9-9-4-4-4-4-4-4-4-4-9-9-9-9-9-9-9-9-4-4-4-4-2-2-2-2--|
A||-9-9-9-9-9-9-9-9-4-4-4-4-4-4-4-4-9-9-9-9-9-9-9-9-4-4-4-4-2-2-2-2--|
D||-9-9-9-9-9-9-9-9-4-4-4-4-4-4-4-4-9-9-9-9-9-9-9-9-4-4-4-4-2-2-2-2--|



Bridge
E||---------------------------------------|
B||---------------------------------------|
G||---------------------------------------|
D||-0---------------6---6666666699999999--|
A||-0----6--7\---9------------------------|
D||-0-------------------------------------|



Outro
E||--------------------------------------------------------------------|
B||--------------------------------------------------------------------|
G||--------------------------------------------------------------------| x2
D||-7777777777777777666666666666666644444444444444442222222222222222---|
A||-7777777777777777666666666666666644444444444444442222222222222222---|
D||-7777777777777777666666666666666644444444444444442222222222222222---|


E||--------------------------------------------------------------------|
B||--------------------------------------------------------------------|
G||--------------------------------------------------------------------|
D||-7777777777777777666666666666666644444444444444442222222211110000---|
A||-7777777777777777666666666666666644444444444444442222222211110000---|
D||-7777777777777777666666666666666644444444444444442222222211110000---|



Playback:

Intro
Verse x2
Pre-Chorus x2
Chorus x3
Bridge
Outro



Tablature Legend
----------------
 h   - hammer-on
 p   - pull-off
 b   - bend
 r   - release bend
 *   - pinch harmonic
 x   - mute note
 .   - palm mute
 /   - slide down
 \   - slide up
Related for Chemicals tab
Advertisement will be closed in 10 seconds