Song name
# A B C D E F G H I J K L M N O P Q R S T U V W X Y Z

Armor For Sleep - End Of The World tab

Intro to End of the world

/ slide
* Hammer-ons
P pull-off

E---4----4-----4----4----4*5---5p4---4-----3---3---3---3---3/2-3/2--|
B-----5-----5----5----5------5-----5---------5---5---5---5---------5|
G-------------------------------------------------------------------|
D-------------------------------------------------------------------|
A-------------------------------------------------------------------|
E-------------------------------------------------------------------|

E---4----4-----4----4----4*5---5p4---4-----3---3---3---3---3/7-7/5--|
B-----5-----5----5----5------5-----5---------5---5---5---5----5----5|
G-------------------------------------------------------------------|
D-------------------------------------------------------------------|
A-------------------------------------------------------------------|
E-------------------------------------------------------------------|

Repeat that until power chords

E---19---------19------------17---------15---------------|
B------15-17-------15-17---------12-15-----15-17---------|
G--------------------------------------------------------|  repeat 2x
D--------------------------------------------------------|
A--------------------------------------------------------|
E--------------------------------------------------------|
Tap to rate this tab
 
# A B C D E F G H I J K L M N O P Q R S T U V W X Y Z