Song name
# A B C D E F G H I J K L M N O P Q R S T U V W X Y Z

Armor For Sleep - Know What You Have tab

Tabbed by: Joshua Garcia (halofreak731@aol.com)

Tabs For the song: Know What You Have by Armor For Sleep
Please rate and let me know if you have any corrections. Thank you.

As requested, tabs for the song Know What You Have by Armor For Sleep.
Never actually tabbed a song that has an acoustic in it since I don't own one, but it sounds
accurate. And for the nay sayers it's either my way or the highway since you can't find 
for
this song anywhere else!

Tuning: Standard (E A D G B E)

Intro
Guitar 1:
E||--------------------------------------------|
B||--16---16-16---16-16---16-16---16-16b17r16--|
G||--------------------------------------------| (repeats throughout the song)
D||--------------------------------------------|
A||--------------------------------------------|
E||--------------------------------------------|

Verse
Guitar 2 (acoustic):
E||----------------------------------------|----------------------------------------|
B||----------------------------------------|-7-----7-----7-----7-----7-7------------|
G||-8-----8-----8-----8-----8-8------------|-x-----x-----x-----x-----x-x------------|
D||-x-----x-----x-----x-----x-x-------x2---|-8-----8-----8-----8-----8-8-------x2---|
A||-9-x-x-9-x-x-9-x-x-9-x-x-9-9-x-x--------|-6-x-x-6-x-x-6-x-x-6-x-x-6-6-x-x--------|
E||-7-x-x-7-x-x-7-x-x-7-x-x-7-7-x-x--------|-6-x-x-6-x-x-6-x-x-6-x-x-6-6-x-x--------|
(also repeats throughout the song)


Guitar 1:
E||-------------|-------------------------|------------------------|
B||-------------|--------12-----7--9------|-------12-----7--9------|
G||-8-----11----|--8--9---------------8---|-8--9---------------8---|
D||-------------|-------------------------|------------------------|
A||-------------|-------------------------|------------------------|
E||-------------|-------------------------|------------------------|


E||-11----------11----------11----------16--14-------------------------------------|
B||-----9--12-------9--12-------9--12-----------16---16---16---16-16b17r16-16-16---|
G||--------------------------------------------------------------------------------|
D||--------------------------------------------------------------------------------|
A||--------------------------------------------------------------------------------|
E||--------------------------------------------------------------------------------|

Chorus
Guitar 1:
E||--16---16-14---14----------|--------------------------------16---16-14---14-----|
B||------------------16---x3--|--16b17r16--------------------------------------16--|
G||---------------------------|-----------16-13----13-16---16----------------------| x2
D||---------------------------|-----------------14---------------------------------|
A||---------------------------|----------------------------------------------------|
E||---------------------------|----------------------------------------------------|

Pre-Verse
Guitar 1:
E||------------------------------------------------14-14-----|
B||----12--12-11---7--7/9--7----------------/9--9--------14--|
G||-8------------------------8-------------------------------|
D||-----------------------------9--9/11-6--------------------|
A||----------------------------------------------------------|
E||----------------------------------------------------------|

Verse
Guitar 2 (acoustic):
E||----------------------------------------|----------------------------------------|
B||----------------------------------------|-7-----7-----7-----7-----7-7------------|
G||-8-----8-----8-----8-----8-8------------|-x-----x-----x-----x-----x-x------------|
D||-x-----x-----x-----x-----x-x-------x2---|-8-----8-----8-----8-----8-8-------x2---|
A||-9-x-x-9-x-x-9-x-x-9-x-x-9-9-x-x--------|-6-x-x-6-x-x-6-x-x-6-x-x-6-6-x-x--------|
E||-7-x-x-7-x-x-7-x-x-7-x-x-7-7-x-x--------|-6-x-x-6-x-x-6-x-x-6-x-x-6-6-x-x--------|


Guitar 1:
E||-----------------------|
B||-------12-----7--9-----|
G||-8--9---------------8--|
D||-----------------------|
A||-----------------------|
E||-----------------------|

Chorus
Guitar 1:
E||--16---16-14---14----------|--------------------------------16---16-14---14-----|
B||------------------16---x3--|--16b17r16--------------------------------------16--|
G||---------------------------|-----------16-13----13-16---16----------------------| x4
D||---------------------------|-----------------14---------------------------------|
A||---------------------------|----------------------------------------------------|
E||---------------------------|----------------------------------------------------|

Bridge
Guitar 1:
E||--------------------------------|--------------------------|
B||--------------------------------|--------------------------|
G||--------------------------------|--------------------------|
D||-22222222222-44444444444---x2---|-6666666666666666666666---|
A||-22222222222-44444444444--------|-6666666666666666666666---|
E||-00000000000-22222222222--------|-4444444444444444444444---|
    ........... ...........          ......................


Chorus
Guitar 1:
E||--16---16-14---14----------|--------------------------------16---16-14---14-----|
B||------------------16---x3--|--16b17r16--------------------------------------16--|
G||---------------------------|-----------16-13----13-16---16----------------------| x4
D||---------------------------|-----------------14---------------------------------|
A||---------------------------|----------------------------------------------------|
E||---------------------------|----------------------------------------------------|


Tablature Legend
----------------
 h   - hammer-on
 p   - pull-off
 b   - bend
 r   - release bend
 *   - pinch harmonic
 x   - mute note
 .   - palm mute
 /   - slide down
 \   - slide up
Tap to rate this tab
# A B C D E F G H I J K L M N O P Q R S T U V W X Y Z