Song name
# A B C D E F G H I J K L M N O P Q R S T U V W X Y Z

Armor For Sleep - One Last Regret tab

Title: One Last Regret (hidden track)
Artist: Armor For Sleep 
Album: What To Do When You Are Dead

E|----------------------------------------------------| 
B|----------------------------------------------------| 
G|----7-7-7-7-7----5-5-5-5-5----4-4-4-4-4-4--4-4-4-4-4| X2 
D|----5-5-5-5-5----5-5-5-5-5----5-5-5-5-5-5--5-5-5-5-5| 
A|----7-7-7-7-7----6-6-6-6-6----5-5-5-5-5-5--5-5-5-5-5| 
D|----X-X-X-X-X----X-X-X-X-X----X-X-X-X-X-X--X-X-X-X-X| 

E|----------------------------------------------------| 
B|----------------------------------------------------| 
G|----4-4-4-4-4----2-2-2-2-2----2-2-2-2-2-2--2-2-2-2-2| X2 
D|----5-5-5-5-5----5-5-5-5-5----5-5-5-5-5-5--5-5-5-5-5| 
A|----2-2-2-2-2----4-4-4-4-4----3-3-3-3-3-3--3-3-3-3-3| 
D|----X-X-X-X-X----X-X-X-X-X----X-X-X-X-X-X--X-X-X-X-X| 

E|----------------------------------------------------| 
B|----------------------------------------------------| 
G|-----------------7-7-7-7-7----2-2-2-2-2-2--2-2-2-2-2| X2 
D|----2-2-2-2-2----5-5-5-5-5----X-X-X-X-X-X--X-X-X-X-X| 
A|----2-2-2-2-2----5-5-5-5-5----5-5-5-5-5-5--5-5-5-5-5| 
D|----2-2-2-2-2----5-5-5-5-5----4-4-4-4-4-4--4-4-4-4-4| 

You could also play the last chord with 7 on the D string instead of 2 on the G. 
Tap to rate this tab
# A B C D E F G H I J K L M N O P Q R S T U V W X Y Z