Song name
# A B C D E F G H I J K L M N O P Q R S T U V W X Y Z

Armor For Sleep - Armor For Sleep tab

Armor for Sleep
Dream to make Believe
Armor for Sleep (instrumental)
Roro642

Sounds 100% right!


Guitar 1

e|------------------------------------------------------------------------------|
B|------------------------------------------------------------------------------|
G|--14----18-----13----16--14---13----------------------------------------------|
D|-----16-----------14----------------------------------------------------------|
A|------------------------------------------------------------------------------|
E|------------------------------------------------------------------------------|

Guitar 2
e|---------------------------------------------------------------------------|
B|-------7-------------------------------------------------------------------|
G|---6h7--7-----6h7------------------------4---------------------------------|
D|-------------------9----7-6-7----6h7----------7-6-7---6-7-9-7-6------------|
A|---------------------------------------------------------------------------|
E|---------------------------------------------------------------------------|
Tap to rate this tab
# A B C D E F G H I J K L M N O P Q R S T U V W X Y Z