Song name
# A B C D E F G H I J K L M N O P Q R S T U V W X Y Z

Armor For Sleep - Car Underwater tab

Tabbed by: Joshua Garcia (halofreak731@aol.com)

Tabs for the intro: Car Underwater by Armor For Sleep
Please rate and let me know if you have any corrections. Thank you.

So far none of the other tabs have the correct intro / verse. It is actually 
two guitars playing. If you don't believe me then play the song with just 
one headphone and you can hear the difference. This is what is played and is 
100% correct.


Tuning: Drop D (D A D G B E)


Intro / Verse
Guitar 1:
E|--------------------------------|--------------------------------|
B|--------------------------------|--------------------------------|
G|-4-6-6-4-6-6-4-6---4-6-4-6-6-4--|-4-6-6-4-6-6-4-6---4-6-4-6-6-4--|
D|-7-7-7-7-7-7-7-7---7-7-7-7-7-7--|-4-4-4-4-4-4-4-4---4-4-4-4-4-4--|
A|--------------------------------|--------------------------------|
D|--------------------------------|--------------------------------|
   . . . . . . . .   . . . . . .    . . . . . . . .   . . . . . .

E|--------------------------------|----------------------------------|
B|--------------------------------|----------------------------------|
G|-4-6-6-4-6-6-4-6---4-6-4-6-6-4--|----------------------------------|
D|-7-7-7-7-7-7-7-7---7-7-7-7-7-7--|----------------------------------|
A|--------------------------------|-4-4-9-9-9-9-9-7-7-2-2-2-2-2-2-0--|   < (Note: These turn into 
D|--------------------------------|----------------------------------|            octaves before
   . . . . . . . .   . . . . . .    . . . . . . . . . . . . . . . .               the Chorus     )


Guitar 2:
E|--------------------------------|--------------------------------|
B|--------------------------------|--------------------------------|
G|--------------------------------|--------------------------------|
D|--------------------------------|--------------------------------|
A|--------------------------------|--------------------------------|
D|-9-9-9-9-9-9-9-9---9-9-9-9-9-9--|-0-0-0-0-0-0-0-0---0-0-0-0-0-0--|
   . . . . . . . .   . . . . . .    . . . . . . . .   . . . . . .

E|--------------------------------|----------------------------------|
B|--------------------------------|----------------------------------|
G|--------------------------------|----------------------------------|
D|--------------------------------|----------------------------------|
A|--------------------------------|----------------------------------|
D|-9-9-9-9-9-9-9-9---9-9-9-9-9-9--|-0-0-0-0-0-0-0-0-0-0-0-0-0-0-0-00-|
   . . . . . . . .   . . . . . .    . . . . . . . . . . . . . . . ..




Tablature Legend
----------------
 h   - hammer-on
 p   - pull-off
 b   - bend
 r   - release bend
 *   - pinch harmonic
 '   - natural harmonic
 x   - mute note
 .   - palm mute
 /   - slide down
 \   - slide up
Tap to rate this tab
# A B C D E F G H I J K L M N O P Q R S T U V W X Y Z