Song name
# A B C D E F G H I J K L M N O P Q R S T U V W X Y Z

Armor For Sleep - Truth About Heaven Acoustic tab

Tuning: standard
Capo: 2nd fret

The chords used in this song are Am, C/Cadd9, Em, F/Fmaj7, and G, and variants thereof.
The tabs contain both the rhythm and the melody, so if you have the time and patience
that version will sound the best; otherwise, you can play the chord names beneath the 
tabs for a quicker and easier version. paramore_fans' version
(http://tabs.ultimate-guitar.com/a/armor_for_sleep/truth_about_heaven_ver2_crd.htm) is 
also excellent - it's similar, but a full step higher with no capo, so you'll have to 
transpose if you're comparing the two.


INTRO
e|--3-----0--3-----0--1--0-----0-----3--|
B|--1--3--1--3--1--1--1--1--3--1--1--1--|
G|--2--2--2--2--2--2--2--0--0--0--0--0--|
D|--2--2--2--2--2--3--3--2--2--2--2--2--|
A|--0--0--0--0--0--------3--3--3--3--3--|
E|--------------------------------------|

    Am          F  C


PRE VERSE 1
e|-----------------------------|
B|--5--5-----------------------|
G|-----------------------------|
D|-------3--5-5-3--5-5-3--5-3--|
A|-----------------------------|
E|-----------------------------|


VERSE
e|--0--0-----0--|
B|--1--1--3--1--|
G|--2--0--0--0--|
D|--2--2--2--2--|
A|--0--3--3--3--|
E|--------------|

    Am C

    (walked past my grave in the dark tonight...)
    (found my way back in the dark tonight...)


PRE CHORUS
e|--0-----0--|
B|--1--3--1--|
G|--0--0--0--|
D|--2--2--2--|
A|--3--3--3--|
E|-----------|

    C

    (but that's not...)


CHORUS
e|--0--3--0--0--0--3--|
B|--1--0--0--1--0--1--|
G|--2--0--0--2--2--2--|
D|--3--0--2--2--2--2--|
A|--3--2--2--0--0--0--|
E|-----3--0-----------|

    F  G  Em Am

    (...here, i came down here to tell you...)


PRE VERSE 2
e|--0--0--|
B|--1--1--|
G|--2--0--|
D|--2--2--|
A|--0--3--|
E|--------|

    Am C


BRIDGE
e|--0--0--0--|
B|--1--0--1--|
G|--0--0--2--|
D|--2--2--3--|
A|--3--2--3--|
E|-----0-----|

    C  Em F

    (don't believe that it's better...)
    (don't believe that the weather...)


STRUCTURE
- intro x2
- pre verse 1 x2
- verse x4
- prechorus
- chorus x2
- pre verse 2 x2
- verse x4
- prechorus
- chorus x2
- bridge x3
- chorus x4
- bridge
Tap to rate this tab
# A B C D E F G H I J K L M N O P Q R S T U V W X Y Z