Guitaretab - guitar tabs
Song name
# A B C D E F G H I J K L M N O P Q R S T U V W X Y Z

Armor For Sleep - Car Underwater tab

Armor For Sleep
Car Underwater
What To Do When You Are Dead
Tabbed By: Lee(Double D)

This is my first tab, and although other newbies may say that their tab
isn't accurate, I won't say this. I have played this song with my friend
and it sounds just like AFS. Please rate. 


Intro
PM .. . .  . .  . .   . . . . . .  . .  . . . .  . .  . .  . . . . 
E|--------------------------------|--------------------------------|
B|--------------------------------|--------------------------------|
G|--------------------------------|--------------------------------|
D|11119-9-1111-911--911-91111-9-|1111-9-9-1111-911---91191111-9-|
A|-9-9-9-9--9-9-9-9---9-9-9-9-9-9-|-9-9-9-9--9-9-9-9---9-9-9-9-9-9-|
D|-9-9-9-9--9-9-9-9---9-9-9-9-9-9-|-0-0-0-0--0-0-0-0---0-0-0-0-0-0-|

PM .. . .  . .  . .   . . . . . .  .  .  . . .  . . . . . . . .
E|--------------------------------|--------------------------------|
B|--------------------------------|--------------------------------|
G|--------------------------------|--------------------------------|
D|11119-9-1111-911--911-91111-9-|-----------------------------xx-|
A|-9-9-9-9--9-9-9-9---9-9-9-9-9-9-|------/9-9-9-7-7-7-----------xx-|
D|-9-9-9-9--9-9-9-9---9-9-9-9-9-9-|-11-11-------------9-9-9-9-9-xx-|

Verse 1

E|--------------------------------|--------------------------------|
B|--------------------------------|--------------------------------|
G|--------------------------------|--------------------------------|
D|11119-9-1111-911--911-91111-9-|1111-9-9-1111-911---91191111-9-|
A|-9-9-9-9--9-9-9-9---9-9-9-9-9-9-|-9-9-9-9--9-9-9-9---9-9-9-9-9-9-|
D|-9-9-9-9--9-9-9-9---9-9-9-9-9-9-|-0-0-0-0--0-0-0-0---0-0-0-0-0-0-|

PM .. . .  . .  . .   . . . . . .  .  .  . . .  . . . . . . . .
E|--------------------------------|--------------------------------|
B|--------------------------------|--------------------------------|
G|--------------------------------|--------------------------------|
D|11119-9-1111-911--911-91111-9-|-----------------------------xx-|
A|-9-9-9-9--9-9-9-9---9-9-9-9-9-9-|------/9-9-9-7-7-7-----------xx-|
D|-9-9-9-9--9-9-9-9---9-9-9-9-9-9-|-11-11-------------9-9-9-9-9-xx-|

E|--------------------------------|--------------------------------|
B|--------------------------------|--------------------------------|
G|--------------------------------|--------------------------------|
D|11119-9-1111-911--911-91111-9-|1111-9-9-1111-911---91191111-9-|
A|-9-9-9-9--9-9-9-9---9-9-9-9-9-9-|-9-9-9-9--9-9-9-9---9-9-9-9-9-9-|
D|-9-9-9-9--9-9-9-9---9-9-9-9-9-9-|-0-0-0-0--0-0-0-0---0-0-0-0-0-0-|

PM .. . .  . .  . .   . . . . . .  
E|--------------------------------|--------------------------------|
B|--------------------------------|--------------------------------|
G|--------------------------------|-6-6/9-9-9-7-7-7-4-4-4-4-4-4----|
D|11119-9-1111-911--911-91111-9-|-x-x/x-x-x-x-x-x-x-x-x-x-x-x----|
A|-9-9-9-9--9-9-9-9---9-9-9-9-9-9-|-4-4/7-7-7-5-5-5-2-2-2-2-2-2----|
D|-9-9-9-9--9-9-9-9---9-9-9-9-9-9-|--------------------------------|

Chorus 1(4x)

Rhythm Guitar
E|---------------------------------------------------------------|
B|---------------------------------------------------------------| 
G|---------------------------------------------------------------|
D|-5-x-7-7-x-2-2-2-2-2-2-2-2-x-9-9-9-9-9-9-9-9-7-7-7-7-7-7-7-7---|
A|-5-x-7-7-x-2-2-2-2-2-2-2-2-x-9-9-9-9-9-9-9-9-7-7-7-7-7-7-7-7---|
D|-5-x-7-7-x-2-2-2-2-2-2-2-2-x-9-9-9-9-9-9-9-9-7-7-7-7-7-7-7-7---|

Lead Guitar
E|---------------------------------------------------------------|
B|---------------------------------------------------------------|
G|-7-x-9-9-x-1111111111111111-x-14141414141414141212121212121212-|
D|-x-x-x-x-x--x-x-x-x-x-x-x-x-x--x-x-x-x-x-x-x-x-x-x-x-x-x-x-x-x-|
A|-5-x-7-7-x--9-9-9-9-9-9-9-9-x-12121212121212121010101010101010-|
D|---------------------------------------------------------------|

Verse 2

E|--------------------------------|--------------------------------|
B|--------------------------------|--------------------------------|
G|--------------------------------|--------------------------------|
D|11119-9-1111-911--911-91111-9-|1111-9-9-1111-911---91191111-9-|
A|-9-9-9-9--9-9-9-9---9-9-9-9-9-9-|-9-9-9-9--9-9-9-9---9-9-9-9-9-9-|
D|-9-9-9-9--9-9-9-9---9-9-9-9-9-9-|-0-0-0-0--0-0-0-0---0-0-0-0-0-0-|

PM .. . .  . .  . .   . . . . . .  .  .  . . .  . . . . . . . .
E|--------------------------------|--------------------------------|
B|--------------------------------|--------------------------------|
G|--------------------------------|--------------------------------|
D|11119-9-1111-911--911-91111-9-|-----------------------------xx-|
A|-9-9-9-9--9-9-9-9---9-9-9-9-9-9-|------/9-9-9-7-7-7-----------xx-|
D|-9-9-9-9--9-9-9-9---9-9-9-9-9-9-|-11-11-------------9-9-9-9-9-xx-|
[ Tab from: http://www.guitaretab.com/a/armor-for-sleep/56195.html ]
E|--------------------------------|--------------------------------|
B|--------------------------------|--------------------------------|
G|--------------------------------|--------------------------------|
D|11119-9-1111-911--911-91111-9-|1111-9-9-1111-911---91191111-9-|
A|-9-9-9-9--9-9-9-9---9-9-9-9-9-9-|-9-9-9-9--9-9-9-9---9-9-9-9-9-9-|
D|-9-9-9-9--9-9-9-9---9-9-9-9-9-9-|-0-0-0-0--0-0-0-0---0-0-0-0-0-0-|

PM .. . .  . .  . .   . . . . . .  
E|--------------------------------|--------------------------------|
B|--------------------------------|--------------------------------|
G|--------------------------------|-6-6/9-9-9-7-7-7-4-4-4-4-4-4----|
D|11119-9-1111-911--911-91111-9-|-x-x/x-x-x-x-x-x-x-x-x-x-x-x----|
A|-9-9-9-9--9-9-9-9---9-9-9-9-9-9-|-4-4/7-7-7-5-5-5-2-2-2-2-2-2----|
D|-9-9-9-9--9-9-9-9---9-9-9-9-9-9-|--------------------------------|

Chorus 2(4x)

Rhythm Guitar
E|---------------------------------------------------------------|
B|---------------------------------------------------------------| 
G|---------------------------------------------------------------|
D|-5-x-7-7-x-2-2-2-2-2-2-2-2-x-9-9-9-9-9-9-9-9-7-7-7-7-7-7-7-7---|
A|-5-x-7-7-x-2-2-2-2-2-2-2-2-x-9-9-9-9-9-9-9-9-7-7-7-7-7-7-7-7---|
D|-5-x-7-7-x-2-2-2-2-2-2-2-2-x-9-9-9-9-9-9-9-9-7-7-7-7-7-7-7-7---|

Lead Guitar
E|---------------------------------------------------------------|
B|---------------------------------------------------------------|
G|-7-x-9-9-x-1111111111111111-x-14141414141414141212121212121212-|
D|-x-x-x-x-x--x-x-x-x-x-x-x-x-x--x-x-x-x-x-x-x-x-x-x-x-x-x-x-x-x-|
A|-5-x-7-7-x--9-9-9-9-9-9-9-9-x-12121212121212121010101010101010-|
D|---------------------------------------------------------------|

Breakdown                             Rhythm Guitar
Lead Guitar              PM  . . . . . . . . . . . . . . . . 
E|-----------|           E|--------------------------------------|
B|-----------|           B|--------------------------------------| 
G|-----------|           G|--------------------------------------|
D|------7-5~-|(3x)       D|-0-2-2-2-2-2-2-2-2-2-2-2-2-2-2-2-2----|
A|-2s5-------|           A|-0-2-2-2-2-2-2-2-2-2-2-2-2-2-2-2-2----|
D|-----------|           D|-0-2-2-2-2-2-2-2-2-2-2-2-2-2-2-2-2----|

Rhythm Guitar
E|-------------------------------------------------------------|
B|-------------------------------------------------------------|
G|-------------------------------------------------------------|
D|---9--9--9--9-9-9-7--7--7--7-7-7-5--5--5--5-5-x-5-5-5--5-5-5-|(4x)
A|---9--9--9--9-9-9-7--7--7--7-7-7-5--5--5--5-5-x-5-5-5--5-5-5-|
D|---9--9--9--9-9-9-7--7--7--7-7-7-5--5--5--5-5-x-5-5-5--5-5-5-|

Lead Guitar
E|---------14--------14--------14--------14--------14-------14-|
B|---10h12-----10h12-----10h12-----10h12-----10h12----10h12----|
G|-------------------------------------------------------------|
D|-------------------------------------------------------------|(3x)
A|-------------------------------------------------------------|
D|-------------------------------------------------------------|

Chorus 3(4x)
Rhythm Guitar
E|---------------------------------------------------------------|
B|---------------------------------------------------------------| 
G|---------------------------------------------------------------|
D|-5-x-7-7-x-2-2-2-2-2-2-2-2-x-9-9-9-9-9-9-9-9-7-7-7-7-7-7-7-7---|
A|-5-x-7-7-x-2-2-2-2-2-2-2-2-x-9-9-9-9-9-9-9-9-7-7-7-7-7-7-7-7---|
D|-5-x-7-7-x-2-2-2-2-2-2-2-2-x-9-9-9-9-9-9-9-9-7-7-7-7-7-7-7-7---|

Lead Guitar
E|---------------------------------------------------------------|
B|---------------------------------------------------------------|
G|-7-x-9-9-x-1111111111111111-x-14141414141414141212121212121212-|
D|-x-x-x-x-x--x-x-x-x-x-x-x-x-x--x-x-x-x-x-x-x-x-x-x-x-x-x-x-x-x-|
A|-5-x-7-7-x--9-9-9-9-9-9-9-9-x-12121212121212121010101010101010-|
D|---------------------------------------------------------------|

Outro(2x)
Rhythm Guitar
E|---------------------------------------------------------------|
B|---------------------------------------------------------------| 
G|---------------------------------------------------------------|
D|-5-x-7-7-x-2-2-2-2-2-2-2-2-x-9-9-9-9-9-9-9-9-7-7-7-7-7-7-7-7---|
A|-5-x-7-7-x-2-2-2-2-2-2-2-2-x-9-9-9-9-9-9-9-9-7-7-7-7-7-7-7-7---|
D|-5-x-7-7-x-2-2-2-2-2-2-2-2-x-9-9-9-9-9-9-9-9-7-7-7-7-7-7-7-7---|

Lead Guitar
E|---------------------------------------------------------------|
B|---------------------------------------------------------------|
G|-7-x-9-9-x-1111111111111111-x-14141414141414141212121212121212-|
D|-x-x-x-x-x--x-x-x-x-x-x-x-x-x--x-x-x-x-x-x-x-x-x-x-x-x-x-x-x-x-|
A|-5-x-7-7-x--9-9-9-9-9-9-9-9-x-12121212121212121010101010101010-|
D|---------------------------------------------------------------|

Rhythm Guitar
E|--------------------------------|
B|--------------------------------| 
G|--------------------------------|
D|-5-x-7-7-x-2-2-2-2-2-2-2-2~~~~--|
A|-5-x-7-7-x-2-2-2-2-2-2-2-2~~~~--|
D|-5-x-7-7-x-2-2-2-2-2-2-2-2~~~~--|

Lead Guitar
E|---------------------------------|
B|---------------------------------|
G|-7-x-9-9-x-1111111111111111~~~~--|
D|-x-x-x-x-x--x-x-x-x-x-x-x-x~~~~--|
A|-5-x-7-7-x--9-9-9-9-9-9-9-9~~~~--|
D|---------------------------------|
Related for Car Underwater tab