Song name
# A B C D E F G H I J K L M N O P Q R S T U V W X Y Z

Armor For Sleep - Awkward Last Words tab

This Is About 99.98% Correct! Strumming might be off but listen to the music when your 
at this! If you have any questions E-Mail me at Epiphonekiddo@gmail.com. Enjoy!!

Intro

Guitar 1
|---------------------------------|
|---------------------------------|
|----4-----8-----3----3---4p3-----|
|---------------------------------|
|--6-----9-----4----4-------------|   x6
|-6-----9-----4----4--------------|

Guitar 2 (Comes In After Guitar One Plays Intro Twice)
|----------------------------|    |---------4-------2-----2---0--------|
|--4--4--4--4---2--2--2--2---|    |------------------------------------|
|---4--4--4--4---4--4--4--4--|    |--3--3h4----3h4----3h4--------------|
|----------------------------| x4 |------------------------------------|  x2
|----------------------------|    |------------------------------------|
|----------------------------|    |------------------------------------|

Guitar 1
|-----------------------------------------|
|-----------------------------------------|
|-----------------------------------------|
|--4-4-4-4-4--9-9-9-9-9--4-4-4-4-4-4-4-4--|
|--4-4-4-4-4--9-9-9-9-9--4-4-4-4-4-4-4-4--|  x4
|--4-4-4-4-4--9-9-9-9-9--4-4-4-4-4-4-4-4--|

Guitar 2 (Comes In When Guitar 1 Plays that twice)
|------------------------------------------------------|
|--4--4--4--4---2--2--2--2--0--0--0--0--0--0--0--0-----|
|---4--4--4--4---4--4--4--4--4--4--4--4--4--4--4--4----|
|------------------------------------------------------| x2
|------------------------------------------------------|
|------------------------------------------------------|

Guitar 1
"Were Out Of Time and I can't Breathe...."
|-----------------------------------------------------------|
|-----------------------------------------------------------|
|-------------------9-9/-11---------------------------------|
|--2-2-2-2-2-2-2-2--x-x/-x----6-6-6-6-6-6-6-6-------9-9/6---|
|--2-2-2-2-2-2-2-2--6-6/-9----6-6-6-6-6-6-6-6--x2---x-x/x---|
|--2-2-2-2-2-2-2-2------------6-6-6-6-6-6-6-6-------6-6/4---| Then Repeat the Beginning 
^^^^^^

Guitar 2 (Comes in after the 2nd Fret power cord)
|----------------------| |----------------------|
|----------------------| |--12-12---------------|
|-9------/11-----------| |--------15-15-15-15---|
|-x------/x------------| |----------------------|x2
|-6--x8--/9------------| |----------------------|
|----------------------| |----------------------|

Guitar 1

|--------------------------------------------------------|
|--------------------------------------------------------|
|---4--6-6--8-8--8-8-8-8-8-8--9-9--8-8-8-8--6-6-6-6/8-8--|
|---x--x-x--x-x--x-x-x-x-x-x--x-x--x-x-x-x--x-x-x-x/x-x--|
|---2--4-4--6-6--6-6-6-6-6-6--7-7--6-6-6-6--4-4-4-4/6-6--| x2
|--------------------------------------------------------|

Guitar 2 (plays this while guitar 1 plays the upper tab)

|-----------------------------------------|
|-----------------------------------------|
|-----------------------------------------|
|-----------------------------------------|
|-----------------------------------------|  x2
|--4-4-4-4-4--9-9-9-9-9--4-4-4-4-4-4-4-4--|

Guitar 1
|-----------------------------------------|
|-----------------------------------------|
|-----------------------------------------|
|--4-4-4-4-4--9-9-9-9-9--4-4-4-4-4-4-4-4--|
|--4-4-4-4-4--9-9-9-9-9--4-4-4-4-4-4-4-4--|  x4
|--4-4-4-4-4--9-9-9-9-9--4-4-4-4-4-4-4-4--|

Guitar 2 (Comes In When Guitar 1 Plays that twice)
|------------------------------------------------------|
|--4--4--4--4---2--2--2--2--0--0--0--0--0--0--0--0-----|
|---4--4--4--4---4--4--4--4--4--4--4--4--4--4--4--4----|
|------------------------------------------------------| x4
|------------------------------------------------------|
|------------------------------------------------------|
Guitar 1
"Were Out Of Time and I cant Breathe....."
|-----------------------------------------------------------|
|-----------------------------------------------------------|
|-------------------9-9/-11---------------------------------|
|--2-2-2-2-2-2-2-2--x-x/-x----6-6-6-6-6-6-6-6-------9-9/6---|
|--2-2-2-2-2-2-2-2--6-6/-9----6-6-6-6-6-6-6-6--x2---x-x/x---|
|--2-2-2-2-2-2-2-2------------6-6-6-6-6-6-6-6-------6-6/4---| Then Repeat the Beginning 
^^^^^^

Guitar 2 (Comes in after the 2nd Fret power cord)
|----------------------| |----------------------|
|----------------------| |--12-12---------------|
|-9------/11-----------| |--------15-15-15-15---|
|-x------/x------------| |----------------------|x2
|-6--x8--/9------------| |----------------------|
|----------------------| |----------------------|

I have the rest figured out but im going to add more later! Enjoy What You Have! Try to 
out the rest by using this tab!
Tap to rate this tab
# A B C D E F G H I J K L M N O P Q R S T U V W X Y Z