Song name
# A B C D E F G H I J K L M N O P Q R S T U V W X Y Z

Armor For Sleep - A Quick Litlle Flight tab

-----------------------------------------------------------------------------
                 A QUICK LITTLE FLIGHT - Armor For Sleep
-----------------------------------------------------------------------------
Tabbed by: ohhh shoot
Email: ifyoulistenin@aol.com

this song is played on keyboard, but im tabbing it for guitar. love it. love them. this
this. haha. i haven't seen it anywhere so i thought i'd post it here. its 100% perfect.
the most perfect version you'll find. if you see anything else.. well... i just hope you
end up here. haha. enjoy..

| /  slide up
| \  slide down
| h  hammer-on
| p  pull-off
| ~  vibrato
| +  harmonic
| x  Mute note

Tuning: standard tuning

intro/verses
(play it twice before singing comes in)
e|-------------------------|
B|-3~------0---------------|
G|----0-2-----2------------|
D|-------------------------| x4
A|-2~------3---------------|
E|-------------------------|

chorus: (the first time you play it, its just as a bridge kinda thing... but
im sure you knew that if you listen to them.. whatev...)
e|-----------------------------------------------------------------------------|
B|------0-----3--1~------0------1-0~-------------------------------------------|
G|---0----2-0---------0----2-0-------------------------------------------------|
D|-----------------------------------------------------------------------------|
A|------2-----3~---------2------3----------------------------------------------|
E|-0~---------------0~---------------------------------------------------------|

song structure:

intro x6
chrous x1
intro x6
chorus x2 (after the second time, it starts to fade out)

allllll finished. "quick little flight" is a quick little tab.

============================================================================
Tap to rate this tab
 
# A B C D E F G H I J K L M N O P Q R S T U V W X Y Z