Song name
# A B C D E F G H I J K L M N O P Q R S T U V W X Y Z

Armor For Sleep - More You Talk The Less I Hear tab

			     The More You Talk The Less I Hear - Armor For Sleep

Tuning:Standard

Intro-x2
e|----------------------------------------------------------------------------------------------|
B|----------------------------------------------------------------------------------------------|
G|----------------------------------------------------------------------------------------------|
D|----------------------------------------------------------------------------------------------|
A|--------0--12p0--0--8p0--8p0--8p0--7h8p7p0-----x3--7h8--0--8h10--0--10h12--0--8h10--0--7h8p8--|
E|-10s12----------------------------------------------------------------------------------------|

Verse-x4
e|--5----5-----3-----3------------------------------------------------------------------|
B|----5-----5-----3-----3--6-----6-----5------5------5----------------------------------|
G|----------------------------5-----5------5------5-----5-------------------------------|
D|--------------------------------------------------------------------------------------|
A|--------------------------------------------------------------------------------------|
E|--------------------------------------------------------------------------------------|

Pre-chorus
e|----------------------------------------------------------------------------------|
B|--------------10------------------------------------------------------------------|
G|--10-----------------x16----------------------------------------------------------|
D|-------x16----7-------------------------------------------------------------------|
A|--8-------------------------------------------------------------------------------|
E|----------------------------------------------------------------------------------|

Chorus-x4
e|------1-------------------------|
B|------3-------------------------|
G|------2---------rhythm changes--|
D|--3-----------------------------|
A|--3-----------------------------|
E|--1-----------------------------|

Pre-verse-x2
e|--------------------------------------------------------|
B|-10--10--10---------------------------------------------|
G|---------------x4----10--10--10-----------9--9--9-------|
D|--7---7---7------------------------x2---------------x2--|
A|---------------------8----8---8-----------7--7--7-------|
E|--------------------------------------------------------|

Bridge
e|--------0-----------0------------------------------------|
B|--------1-----------1------------------------------------|
G|-----0-----------0------(2) Fill added every 4 measures--|
D|--2-----------3------------------------------------------|
A|---------------------------------------------------------|
E|---------------------------------------------------------|

Outro-
e|--8----7------------------------|
B|-------------Figure out rhythm--|
G|--10---9------------------------|
D|--------------------------------|
A|--------------------------------|
E|--------------------------------|

Order of Song-
Intro-x2
Verse-x4
Pre-chorus-x1
Chorus-x4
Pre-verse-x2
Intro-x1
Verse-x4
Pre-Chorus-x1
Chorus-x4
Pre-verse-x2
Bridge-x4
Verse-x4
Pre-chorus-x1
Outro-x2
Pre-verse-x2
Tap to rate this tab
# A B C D E F G H I J K L M N O P Q R S T U V W X Y Z