Song name
# A B C D E F G H I J K L M N O P Q R S T U V W X Y Z

Armor For Sleep - Very Invensible tab

This is my first tab and prolly my last this shit took forever and i dont feel liek
taking this much time to do a tab again. It also may have seemed to take forever
because ive got the flu while trying to do this..... but yeah this sounds close to
being right to me there are some(Lead)parts i havent gotten yet but when i get them
ill add them to this tab.
Enjoy and spread the word about Armor for Sleep.
         -Mike
.  - palm mute
/  - slide up and down to
b  - Bend
() - Natural harmonics
*  - Pinch harmonics
h  - Hammer
p  - Pull off
"  - Tremolo Picking
x  - Mute

http://www.purevolume.com/armorforsleep

Intro (Right)
E|------9-7----7h9-9-9-7--9h7---------------------------------------------|
B|---7-------7-----------7----7-------------------------------------------|
G|------------------------------------------------------------------------|
D|------------------------------------------------------------------------|
A|------------------------------------------------------------------------|
D|------------------------------------------------------------------------|
     . . .  . . .  . .  . .  . . . . .  . . .  . . .  . .  . . .  . . .  . .  . . . .  . .

Intro (Left)
E|------------------------------------------------------------------------|
B|------------------------------------------------------------------------|
G|----------------9---------------------------6---------------------------|
D|--9-------------x-------------4-------------x---------------------------|
A|--9-------------7-------------4-------------4---------------------------|
D|--7---------------------------2-----------------------------------------|
     listen to song for timing
. . .  . . .  . .  . .  . . . . .  . . .  . . .  . .  . . .  . . .  . .  . . . .  . .

Bridge I (Left)
E|----------------------------------------------------------------------|
B|----------------------------------------------------------------------|
G|----------------------------------------------------------------------|
D|--4--7--9xx99---------------------------------------------------------|
A|--4--7--9xx99---------------------------------------------------------|
D|--2--5--7xx77---------------------------------------------------------|
listen to song for timing

----------------------------------------------||
----------------------------------------------||
----------------------------------------------||
---11--7---6-------11--9---7-----11--9---6----||
---11--7---6-------11--9---7-----11--9---6----||
-0-9-0-5-0-4-----0-9-0-7-0-5---0-9-0-7-0-4----||

Chorus (Lead)
E|------9-7----7h9-9-9-7--9h7---------------------------------------------|
B|---7-------7-----------7----7-------------------------------------------|
G|------------------------------------------------------------------------|
D|------------------------------------------------------------------------|
A|------------------------------------------------------------------------|
D|------------------------------------------------------------------------|
     . . .  . . .  . .  . .  . . . . .  . . .  . . .  . .  . . .  . . .  . .

Chorus (Rythem)
E|------------------------------------------------------------------------|
B|------------------------------------------------------------------------|
G|----------------9---------------------------6---------------------------|
D|--9-------------x-------------4-------------x---------------------------|
A|--9-------------7-------------4-------------4---------------------------|
D|--7---------------------------2-----------------------------------------|
     listen to song for timing


Verse (Rhythm)

E|----------------------------------------------------------------------|
B|----------------------------------------------------------------------|
G|----------------------------------------------------------------------|
D|--4--7--9xx99---------------------------------------------------------|
A|--4--7--9xx99---------------------------------------------------------|
D|--2--5--7xx77---------------------------------------------------------|
listen to song for timing

Chorus (Lead)
E|------9-7----7h9-9-9-7--9h7---------------------------------------------|
B|---7-------7-----------7----7-------------------------------------------|
G|------------------------------------------------------------------------|
D|------------------------------------------------------------------------|
A|------------------------------------------------------------------------|
D|------------------------------------------------------------------------|
     . . .  . . .  . .  . .  . . . . .  . . .  . . .  . .  . . .  . . .  . .

Chorus (Rythem)
E|------------------------------------------------------------------------|
B|------------------------------------------------------------------------|
G|----------------9---------------------------6---------------------------|
D|--9-------------x-------------4-------------x---------------------------|
A|--9-------------7-------------4-------------4---------------------------|
D|--7---------------------------2-----------------------------------------|
     listen to song for timing

Breakdown (Rythem)
E|-----------------------------------------------|
B|-----------------------------------------------|
G|-----------------------------------------------|
D|--11---7---6---4--7--9x-12---------------------|
A|--11---7---6---4--7--9x-12---------------------|
D|-0-9-0-5-0-4---2--5--7x-10---------------------|
listen to song for timing

Outro breakdown(Lead)
E|------9-7----7h9-9-9-7--9h7---------------------------------------------|
B|---7-------7-----------7----7-------------------------------------------|
G|------------------------------------------------------------------------|
D|------------------------------------------------------------------------|
A|------------------------------------------------------------------------|
D|------------------------------------------------------------------------|
     . . .  . . .  . .  . .  . . . . .  . . .  . . .  . .  . . .  . . .  . .
Outro Breakdown (Rythem)
E|-----------------------------------------------------------|
B|-----------------------------------------------------------|
G|----------------------------------9-----6------------------|
D|---11--7----6----11---9----7---9--x--4--x------------------|
A|---11--7----6----11---9----7---9--7--4--4------------------|
D|-0-9-0-5--0-4--0-9--0-7--0-5---7-----2---------------------|
listen to song for timing

 . .  . . . .  . .  . .  . . . . .  . .  . . . . . . . . . . . . . .
Tap to rate this tab
# A B C D E F G H I J K L M N O P Q R S T U V W X Y Z