Song name
# A B C D E F G H I J K L M N O P Q R S T U V W X Y Z

Armor For Sleep - The End Of Fraud tab

The End Of A Fraud 
Armor for Sleep
What To Do When Your Dead
        contact:    tabbed by matt owen (sexualxxoutkast@yahoo.com)
                                www.myspace.com/sexualxxoutkast
Drop D


E|-----5-----5-----------2-----2-----------| A
B|---3-----3---3-------3-----3---3---------|
G|-3-----3-------3---2-----2-------2-------| repeat as needed
D|-----------------------------------------|
A|-----------------------------------------|
D|-----------------------------------------|

E|-5-------------------2-------------------| B
B|-3-------------------3-------------------|
G|-3-------------------2-------------------| repeat as needed
D|-----------------------------------------|
A|-----------------------------------------|
D|-----------------------------------------|

E|-5-------------------2--2h3p2------------| C
B|-3-------------------3-------3-----------|
G|-3-------------------2--------2----------|
D|-----------------------------------------|
A|-----------------------------------------|
D|-----------------------------------------|

E|-5-------------------2-2-3/5-------------| D
B|-3-------------------3-------------------|
G|-3-------------------3-------------------|
D|-----------------------------------------|
A|-----------------------------------------|
D|-----------------------------------------|

E|-5----10-------------2-------------------| E
B|-3----------11---10--3-------------------|
G|-3-------------------2-------------------|
D|---12----12----12------------------------|
A|-----------------------------------------|
D|-----------------------------------------|

E|-5-------5-----3-----2/24~---------------| F
B|-3-------------------3-------------------|
G|-3----3-----2--------2-------------------|
D|-----------------------------------------|
A|-----------------------------------------|
D|-----------------------------------------|

E|-----17----17---------14----14-----------| G
B|---15----15--15-----15----15--15---------|
G|-15----15------15-14----14------14-------|
D|-----------------------------------------|
A|-----------------------------------------|
D|-----------------------------------------|

then the "don't believe... that the weather is perfect the day that diiieee" part of truth about heaven.
Tap to rate this tab
 
# A B C D E F G H I J K L M N O P Q R S T U V W X Y Z