Song name
# A B C D E F G H I J K L M N O P Q R S T U V W X Y Z

Armor For Sleep - A Quick Flight tab

Armor For Sleep - A Quick Little Flight
What To Do When You Are Dead
Standard Tuning
Tabbed By: Anthony Ybarra


Intro/Verse
e|---11------------------|
B|-------9-11---13--11---|
G|-----------------------|
D|---10---------11-------|
A|-----------------------|
E|-----------------------|

Chorus
e|------------------------13--11---|
B|------9---13-p-11----------------|
G|-------------------13------------|
D|------------------------11-------|
A|---8------11---------------------|
E|---------------------------------|

e|---------------------------------|
B|------9---13-p-11-------14--13---|
G|-------------------13------------|
D|------------------------11-------|
A|---8------11---------------------|
E|---------------------------------|

Pretty easy song it only took like 3 mins to tab out. 
Tap to rate this tab
# A B C D E F G H I J K L M N O P Q R S T U V W X Y Z