Armored Saint - Chemical Euphoria tab

-------------------------
			 ARMORED SAINT - CHEMICAL EUPHORIA
-------------------------------------------------------------------------------
Tabbed by:
Email:

Tuning:
Intro
e|------------------------------------------------------------------|
B|------------------------------------------------------------------|
G|-9-9--------------9-9--------------9-9-------------9--------------|
D|-7-7------7-------7-7---------7-8--7-7-----7-------7---8-----8----|
A|-0-0--7-8---10-8--0-0--7-8-10------0-0-7-8---10-8--0--7--0-7---0--|
E|------------------------------------------------------------------|
2nd Ending
e|-------------------------------------------------------------------------------------|
B|-------------------------------------------------------------------------------------|
G|-9-----------------------------------------------------------------------------------|
D|-7---8-----8-----8---8---888---------------------------------------------------------|
A|-0-7---0-7---0-7---0---0-------------------------------------------------------------|
E|-------------------------------------------------------------------------------------|
Verse
e|--------------------------------------|
B|--------------------------------------|
G|-9-9-----------------------7-----9-9--|
D|-7-7-----------------------5-----7-7--|
A|-0-0-0-0-0-0-0-000-0-0-0-0----0--0-0--|
E|--------------------------------------|
Verse Ending
e|-----------------------------------------------------|
B|-----------------------------------------------------|
G|-9-9-------------------------------------------------|
D|-7-7------------------------------2-2-------3-3------|
A|-0-0-0-0-0-0-0-000-0-0-0-0--------0-0--3-3--1-1-5-5--|
E|----------------------------17/--------1-1------3-3--|
Chorus
e|-------------------------------------------------------------------|
B|-------------------------------------------------6--3--3-----------|
G|----------5----7----8-7--------------------3--5--5--2--0--3---5-7--|
D|-2--------5----7----8-7--5-----------------3--5--3--0--0--3-3-5-7--|
A|-0-000000-3-00-5-00-6-5--5-----------------1--3-----0-----1-3-3-5--|
E|-------------------------3--33333333333333-------------3----1------|

e|-----------------------------------------------------|
B|------------------------6-3--3-----------------------|
G|------------------3--5--5-2--0---3-----7-------------|
D|-5----------------3--5--3-0--0---3--3--7-------------|
A|-5----------------1--3----0------1--3--5--2---intro--|
E|-3-33333333333333------------3------1-----0----------|
Tap to rate this tab
 
# A B C D E F G H I J K L M N O P Q R S T U V W X Y Z